  0
SECTION
  2
HEADER
  9
$ACADVER
  1
AC1027
  9
$ACADMAINTVER
 70
    55
  9
$DWGCODEPAGE
  3
ANSI_1252
  9
$LASTSAVEDBY
  1
danica
  9
$REQUIREDVERSIONS
160
                 0
  9
$INSBASE
 10
0.0
 20
0.0
 30
0.0
  9
$EXTMIN
 10
-0.9510565102100294
 20
-3.264135573059145
 30
-0.0000000000000903
  9
$EXTMAX
 10
0.9510565102100446
 20
-0.1250000037251158
 30
5.782842636108382
  9
$LIMMIN
 10
0.0
 20
0.0
  9
$LIMMAX
 10
12.0
 20
9.0
  9
$ORTHOMODE
 70
     0
  9
$REGENMODE
 70
     1
  9
$FILLMODE
 70
     1
  9
$QTEXTMODE
 70
     0
  9
$MIRRTEXT
 70
     0
  9
$LTSCALE
 40
1.0
  9
$ATTMODE
 70
     1
  9
$TEXTSIZE
 40
0.2
  9
$TRACEWID
 40
0.05
  9
$TEXTSTYLE
  7
Standard
  9
$CLAYER
  8
0
  9
$CELTYPE
  6
ByLayer
  9
$CECOLOR
 62
   256
  9
$CELTSCALE
 40
1.0
  9
$DISPSILH
 70
     0
  9
$DIMSCALE
 40
1.0
  9
$DIMASZ
 40
0.18
  9
$DIMEXO
 40
0.0625
  9
$DIMDLI
 40
0.38
  9
$DIMRND
 40
0.0
  9
$DIMDLE
 40
0.0
  9
$DIMEXE
 40
0.18
  9
$DIMTP
 40
0.0
  9
$DIMTM
 40
0.0
  9
$DIMTXT
 40
0.18
  9
$DIMCEN
 40
0.09
  9
$DIMTSZ
 40
0.0
  9
$DIMTOL
 70
     0
  9
$DIMLIM
 70
     0
  9
$DIMTIH
 70
     1
  9
$DIMTOH
 70
     1
  9
$DIMSE1
 70
     0
  9
$DIMSE2
 70
     0
  9
$DIMTAD
 70
     0
  9
$DIMZIN
 70
     0
  9
$DIMBLK
  1

  9
$DIMASO
 70
     1
  9
$DIMSHO
 70
     1
  9
$DIMPOST
  1

  9
$DIMAPOST
  1

  9
$DIMALT
 70
     0
  9
$DIMALTD
 70
     2
  9
$DIMALTF
 40
25.4
  9
$DIMLFAC
 40
1.0
  9
$DIMTOFL
 70
     0
  9
$DIMTVP
 40
0.0
  9
$DIMTIX
 70
     0
  9
$DIMSOXD
 70
     0
  9
$DIMSAH
 70
     0
  9
$DIMBLK1
  1

  9
$DIMBLK2
  1

  9
$DIMSTYLE
  2
Standard
  9
$DIMCLRD
 70
     0
  9
$DIMCLRE
 70
     0
  9
$DIMCLRT
 70
     0
  9
$DIMTFAC
 40
1.0
  9
$DIMGAP
 40
0.09
  9
$DIMJUST
 70
     0
  9
$DIMSD1
 70
     0
  9
$DIMSD2
 70
     0
  9
$DIMTOLJ
 70
     1
  9
$DIMTZIN
 70
     0
  9
$DIMALTZ
 70
     0
  9
$DIMALTTZ
 70
     0
  9
$DIMUPT
 70
     0
  9
$DIMDEC
 70
     4
  9
$DIMTDEC
 70
     4
  9
$DIMALTU
 70
     4
  9
$DIMALTTD
 70
     2
  9
$DIMTXSTY
  7
Standard
  9
$DIMAUNIT
 70
     0
  9
$DIMADEC
 70
     0
  9
$DIMALTRND
 40
0.0
  9
$DIMAZIN
 70
     0
  9
$DIMDSEP
 70
    46
  9
$DIMATFIT
 70
     3
  9
$DIMFRAC
 70
     0
  9
$DIMLDRBLK
  1

  9
$DIMLUNIT
 70
     4
  9
$DIMLWD
 70
    -2
  9
$DIMLWE
 70
    -2
  9
$DIMTMOVE
 70
     0
  9
$DIMFXL
 40
1.0
  9
$DIMFXLON
 70
     0
  9
$DIMJOGANG
 40
0.7853981633974483
  9
$DIMTFILL
 70
     0
  9
$DIMTFILLCLR
 70
     0
  9
$DIMARCSYM
 70
     0
  9
$DIMLTYPE
  6

  9
$DIMLTEX1
  6

  9
$DIMLTEX2
  6

  9
$DIMTXTDIRECTION
 70
     0
  9
$LUNITS
 70
     4
  9
$LUPREC
 70
     4
  9
$SKETCHINC
 40
0.1
  9
$FILLETRAD
 40
0.0
  9
$AUNITS
 70
     0
  9
$AUPREC
 70
     0
  9
$MENU
  1
.
  9
$ELEVATION
 40
0.0
  9
$PELEVATION
 40
0.0
  9
$THICKNESS
 40
0.0
  9
$LIMCHECK
 70
     0
  9
$CHAMFERA
 40
0.0
  9
$CHAMFERB
 40
0.0
  9
$CHAMFERC
 40
0.0
  9
$CHAMFERD
 40
0.0
  9
$SKPOLY
 70
     0
  9
$TDCREATE
 40
2458172.619374896
  9
$TDUCREATE
 40
2458172.827708229
  9
$TDUPDATE
 40
2458172.658921817
  9
$TDUUPDATE
 40
2458172.867255150
  9
$TDINDWG
 40
0.0392210648
  9
$TDUSRTIMER
 40
0.0392210648
  9
$USRTIMER
 70
     1
  9
$ANGBASE
 50
0.0
  9
$ANGDIR
 70
     0
  9
$PDMODE
 70
     0
  9
$PDSIZE
 40
0.0
  9
$PLINEWID
 40
0.0
  9
$SPLFRAME
 70
     0
  9
$SPLINETYPE
 70
     6
  9
$SPLINESEGS
 70
     8
  9
$HANDSEED
  5
1543
  9
$SURFTAB1
 70
     6
  9
$SURFTAB2
 70
     6
  9
$SURFTYPE
 70
     6
  9
$SURFU
 70
     6
  9
$SURFV
 70
     6
  9
$UCSBASE
  2

  9
$UCSNAME
  2

  9
$UCSORG
 10
0.0
 20
0.0
 30
0.0
  9
$UCSXDIR
 10
1.0
 20
0.0
 30
0.0
  9
$UCSYDIR
 10
0.0
 20
1.0
 30
0.0
  9
$UCSORTHOREF
  2

  9
$UCSORTHOVIEW
 70
     0
  9
$UCSORGTOP
 10
0.0
 20
0.0
 30
0.0
  9
$UCSORGBOTTOM
 10
0.0
 20
0.0
 30
0.0
  9
$UCSORGLEFT
 10
0.0
 20
0.0
 30
0.0
  9
$UCSORGRIGHT
 10
0.0
 20
0.0
 30
0.0
  9
$UCSORGFRONT
 10
0.0
 20
0.0
 30
0.0
  9
$UCSORGBACK
 10
0.0
 20
0.0
 30
0.0
  9
$PUCSBASE
  2

  9
$PUCSNAME
  2

  9
$PUCSORG
 10
0.0
 20
0.0
 30
0.0
  9
$PUCSXDIR
 10
1.0
 20
0.0
 30
0.0
  9
$PUCSYDIR
 10
0.0
 20
1.0
 30
0.0
  9
$PUCSORTHOREF
  2

  9
$PUCSORTHOVIEW
 70
     0
  9
$PUCSORGTOP
 10
0.0
 20
0.0
 30
0.0
  9
$PUCSORGBOTTOM
 10
0.0
 20
0.0
 30
0.0
  9
$PUCSORGLEFT
 10
0.0
 20
0.0
 30
0.0
  9
$PUCSORGRIGHT
 10
0.0
 20
0.0
 30
0.0
  9
$PUCSORGFRONT
 10
0.0
 20
0.0
 30
0.0
  9
$PUCSORGBACK
 10
0.0
 20
0.0
 30
0.0
  9
$USERI1
 70
     0
  9
$USERI2
 70
     0
  9
$USERI3
 70
     0
  9
$USERI4
 70
     0
  9
$USERI5
 70
     0
  9
$USERR1
 40
0.0
  9
$USERR2
 40
0.0
  9
$USERR3
 40
0.0
  9
$USERR4
 40
0.0
  9
$USERR5
 40
0.0
  9
$WORLDVIEW
 70
     1
  9
$SHADEDGE
 70
     3
  9
$SHADEDIF
 70
    70
  9
$TILEMODE
 70
     1
  9
$MAXACTVP
 70
    64
  9
$PINSBASE
 10
0.0
 20
0.0
 30
0.0
  9
$PLIMCHECK
 70
     0
  9
$PEXTMIN
 10
1.000000000000000E+20
 20
1.000000000000000E+20
 30
1.000000000000000E+20
  9
$PEXTMAX
 10
-1.000000000000000E+20
 20
-1.000000000000000E+20
 30
-1.000000000000000E+20
  9
$PLIMMIN
 10
0.0
 20
0.0
  9
$PLIMMAX
 10
12.0
 20
9.0
  9
$UNITMODE
 70
     0
  9
$VISRETAIN
 70
     1
  9
$PLINEGEN
 70
     0
  9
$PSLTSCALE
 70
     1
  9
$TREEDEPTH
 70
  3020
  9
$CMLSTYLE
  2
Standard
  9
$CMLJUST
 70
     0
  9
$CMLSCALE
 40
1.0
  9
$PROXYGRAPHICS
 70
     1
  9
$MEASUREMENT
 70
     0
  9
$CELWEIGHT
370
    -1
  9
$ENDCAPS
280
     0
  9
$JOINSTYLE
280
     0
  9
$LWDISPLAY
290
     0
  9
$INSUNITS
 70
     1
  9
$HYPERLINKBASE
  1

  9
$STYLESHEET
  1

  9
$XEDIT
290
     1
  9
$CEPSNTYPE
380
     0
  9
$PSTYLEMODE
290
     1
  9
$FINGERPRINTGUID
  2
{91D312A8-5846-476E-902A-C66DDA33F842}
  9
$VERSIONGUID
  2
{334A694E-A6FC-4588-94D1-417711E34880}
  9
$EXTNAMES
290
     1
  9
$PSVPSCALE
 40
0.0
  9
$OLESTARTUP
290
     0
  9
$SORTENTS
280
   127
  9
$INDEXCTL
280
     0
  9
$HIDETEXT
280
     1
  9
$XCLIPFRAME
280
     2
  9
$HALOGAP
280
     0
  9
$OBSCOLOR
 70
   257
  9
$OBSLTYPE
280
     0
  9
$INTERSECTIONDISPLAY
280
     0
  9
$INTERSECTIONCOLOR
 70
   257
  9
$DIMASSOC
280
     2
  9
$PROJECTNAME
  1

  9
$CAMERADISPLAY
290
     0
  9
$LENSLENGTH
 40
50.0
  9
$CAMERAHEIGHT
 40
0.0
  9
$STEPSPERSEC
 40
2.0
  9
$STEPSIZE
 40
6.0
  9
$3DDWFPREC
 40
2.0
  9
$PSOLWIDTH
 40
0.25
  9
$PSOLHEIGHT
 40
4.0
  9
$LOFTANG1
 40
1.570796326794896
  9
$LOFTANG2
 40
1.570796326794896
  9
$LOFTMAG1
 40
0.0
  9
$LOFTMAG2
 40
0.0
  9
$LOFTPARAM
 70
     7
  9
$LOFTNORMALS
280
     1
  9
$LATITUDE
 40
37.795
  9
$LONGITUDE
 40
-122.394
  9
$NORTHDIRECTION
 40
0.0
  9
$TIMEZONE
 70
 -8000
  9
$LIGHTGLYPHDISPLAY
280
     1
  9
$TILEMODELIGHTSYNCH
280
     1
  9
$CMATERIAL
347
11
  9
$SOLIDHIST
280
     0
  9
$SHOWHIST
280
     1
  9
$DWFFRAME
280
     2
  9
$DGNFRAME
280
     0
  9
$REALWORLDSCALE
290
     1
  9
$INTERFERECOLOR
 62
     1
  9
$INTERFEREOBJVS
345
33
  9
$INTERFEREVPVS
346
30
  9
$CSHADOW
280
     0
  9
$SHADOWPLANELOCATION
 40
0.0
  0
ENDSEC
  0
SECTION
  2
CLASSES
  0
CLASS
  1
ACDBDICTIONARYWDFLT
  2
AcDbDictionaryWithDefault
  3
ObjectDBX Classes
 90
        0
 91
        1
280
     0
281
     0
  0
CLASS
  1
MATERIAL
  2
AcDbMaterial
  3
ObjectDBX Classes
 90
     1153
 91
        4
280
     0
281
     0
  0
CLASS
  1
VISUALSTYLE
  2
AcDbVisualStyle
  3
ObjectDBX Classes
 90
     4095
 91
       24
280
     0
281
     0
  0
CLASS
  1
SCALE
  2
AcDbScale
  3
ObjectDBX Classes
 90
     1153
 91
       17
280
     0
281
     0
  0
CLASS
  1
TABLESTYLE
  2
AcDbTableStyle
  3
ObjectDBX Classes
 90
     4095
 91
        1
280
     0
281
     0
  0
CLASS
  1
MLEADERSTYLE
  2
AcDbMLeaderStyle
  3
ACDB_MLEADERSTYLE_CLASS
 90
     4095
 91
        1
280
     0
281
     0
  0
CLASS
  1
ACDBSECTIONVIEWSTYLE
  2
AcDbSectionViewStyle
  3
ObjectDBX Classes
 90
     1025
 91
        1
280
     0
281
     0
  0
CLASS
  1
ACDBDETAILVIEWSTYLE
  2
AcDbDetailViewStyle
  3
ObjectDBX Classes
 90
     1025
 91
        1
280
     0
281
     0
  0
CLASS
  1
RASTERVARIABLES
  2
AcDbRasterVariables
  3
ISM
 90
        0
 91
        1
280
     0
281
     0
  0
CLASS
  1
DICTIONARYVAR
  2
AcDbDictionaryVar
  3
ObjectDBX Classes
 90
        0
 91
        5
280
     0
281
     0
  0
CLASS
  1
SOLID_BACKGROUND
  2
AcDbSolidBackground
  3
SCENEOE
 90
     4095
 91
        1
280
     0
281
     0
  0
CLASS
  1
NPOCOLLECTION
  2
AcDbImpNonPersistentObjectsCollection
  3
ObjectDBX Classes
 90
     1153
 91
        1
280
     0
281
     0
  0
CLASS
  1
SORTENTSTABLE
  2
AcDbSortentsTable
  3
ObjectDBX Classes
 90
        0
 91
        1
280
     0
281
     0
  0
CLASS
  1
ACAD_EVALUATION_GRAPH
  2
AcDbEvalGraph
  3
ObjectDBX Classes
 90
     1153
 91
        2
280
     0
281
     0
  0
CLASS
  1
ACAECUSTOBJ
  2
AcAeEditorObj
  3
AcAeEditorObj
 90
     1024
 91
        2
280
     0
281
     0
  0
CLASS
  1
ACDB_DYNAMICBLOCKPURGEPREVENTER_VERSION
  2
AcDbDynamicBlockPurgePreventer
  3
ObjectDBX Classes
 90
     1153
 91
        2
280
     0
281
     0
  0
CLASS
  1
CELLSTYLEMAP
  2
AcDbCellStyleMap
  3
ObjectDBX Classes
 90
     1152
 91
        1
280
     0
281
     0
  0
ENDSEC
  0
SECTION
  2
TABLES
  0
TABLE
  2
VPORT
  5
8
330
0
100
AcDbSymbolTable
 70
     1
  0
VPORT
  5
57
330
8
100
AcDbSymbolTableRecord
100
AcDbViewportTableRecord
  2
*Active
 70
     0
 10
0.0
 20
0.0
 11
1.0
 21
1.0
 12
0.0000000500493309
 22
0.0000000045627249
 13
0.0
 23
0.0
 14
1.0
 24
1.0
 15
0.0
 25
0.0
 16
16.96661300415887
 26
-16.96661300415888
 36
16.96661300415887
 17
-0.0000000298020685
 27
-1.694567829370498
 37
2.891421318054118
 40
6.834649139230907
 41
2.587837837837837
 42
50.0
 43
0.0
 44
0.0
 50
0.0
 51
0.0000000000000055
 71
     0
 72
  1000
 73
     1
 74
     1
 75
     0
 76
     0
 77
     0
 78
     0
281
     6
 65
     1
110
0.0
120
0.0
130
0.0
111
1.0
121
0.0
131
0.0
112
0.0
122
1.0
132
0.0
 79
     0
146
0.0
348
2D
 60
     3
 61
     5
292
     1
282
     1
141
0.0
142
0.0
 63
   250
421
  3355443
1001
ACAD_NAV_VCDISPLAY
1070
     3
  0
ENDTAB
  0
TABLE
  2
LTYPE
  5
5
330
0
100
AcDbSymbolTable
 70
     1
  0
LTYPE
  5
5B
330
5
100
AcDbSymbolTableRecord
100
AcDbLinetypeTableRecord
  2
ByBlock
 70
     0
  3

 72
    65
 73
     0
 40
0.0
  0
LTYPE
  5
5C
330
5
100
AcDbSymbolTableRecord
100
AcDbLinetypeTableRecord
  2
ByLayer
 70
     0
  3

 72
    65
 73
     0
 40
0.0
  0
LTYPE
  5
5D
330
5
100
AcDbSymbolTableRecord
100
AcDbLinetypeTableRecord
  2
Continuous
 70
     0
  3
Solid line
 72
    65
 73
     0
 40
0.0
  0
ENDTAB
  0
TABLE
  2
LAYER
  5
2
330
0
100
AcDbSymbolTable
 70
     2
  0
LAYER
  5
54
330
2
100
AcDbSymbolTableRecord
100
AcDbLayerTableRecord
  2
0
 70
     0
 62
     7
  6
Continuous
370
    -3
390
F
347
21
348
0
  0
LAYER
  5
87
330
2
100
AcDbSymbolTableRecord
100
AcDbLayerTableRecord
  2
1660.241
 70
     0
 62
     7
  6
Continuous
370
     9
390
F
347
21
348
0
  0
ENDTAB
  0
TABLE
  2
STYLE
  5
3
330
0
100
AcDbSymbolTable
 70
     2
  0
STYLE
  5
55
330
3
100
AcDbSymbolTableRecord
100
AcDbTextStyleTableRecord
  2
Standard
 70
     0
 40
0.0
 41
1.0
 50
0.0
 71
     0
 42
0.2
  3
txt
  4

  0
ENDTAB
  0
TABLE
  2
VIEW
  5
6
330
0
100
AcDbSymbolTable
 70
     1
  0
VIEW
  5
4A3
330
6
100
AcDbSymbolTableRecord
100
AcDbViewTableRecord
  2
_3D_
 70
     0
 40
2400.0
 10
0.0
 20
0.0
 41
2400.0
 11
46.39433933538922
 21
-46.3943393353892
 31
46.39433933538921
 12
0.0000000000002451
 22
-0.0000000000003304
 32
-6.000000000000073
 42
50.0
 43
0.0
 44
0.0
 50
0.0
 71
     0
281
     0
 72
     0
 73
     0
  0
ENDTAB
  0
TABLE
  2
UCS
  5
7
330
0
100
AcDbSymbolTable
 70
     0
  0
ENDTAB
  0
TABLE
  2
APPID
  5
9
330
0
100
AcDbSymbolTable
 70
     9
  0
APPID
  5
56
330
9
100
AcDbSymbolTableRecord
100
AcDbRegAppTableRecord
  2
ACAD
 70
     0
  0
APPID
  5
5E
330
9
100
AcDbSymbolTableRecord
100
AcDbRegAppTableRecord
  2
AcadAnnotative
 70
     0
  0
APPID
  5
78
330
9
100
AcDbSymbolTableRecord
100
AcDbRegAppTableRecord
  2
REVIT
 70
     0
  0
APPID
  5
4BD
330
9
100
AcDbSymbolTableRecord
100
AcDbRegAppTableRecord
  2
ACAD_EXEMPT_FROM_CAD_STANDARDS
 70
     0
  0
APPID
  5
4BF
330
9
100
AcDbSymbolTableRecord
100
AcDbRegAppTableRecord
  2
AEC_XDATA_BOUND_SPACE
 70
     0
  0
APPID
  5
1111
330
9
100
AcDbSymbolTableRecord
100
AcDbRegAppTableRecord
  2
ACAUTHENVIRON
 70
     0
  0
APPID
  5
1115
330
9
100
AcDbSymbolTableRecord
100
AcDbRegAppTableRecord
  2
AcDbDynamicBlockTrueName
 70
     0
  0
APPID
  5
1116
330
9
100
AcDbSymbolTableRecord
100
AcDbRegAppTableRecord
  2
AcDbDynamicBlockGUID
 70
     0
  0
APPID
  5
1537
330
9
100
AcDbSymbolTableRecord
100
AcDbRegAppTableRecord
  2
ACAD_NAV_VCDISPLAY
 70
     0
  0
ENDTAB
  0
TABLE
  2
DIMSTYLE
  5
A
330
0
100
AcDbSymbolTable
 70
     3
100
AcDbDimStyleTable
 71
     0
  0
DIMSTYLE
105
58
330
A
100
AcDbSymbolTableRecord
100
AcDbDimStyleTableRecord
  2
Standard
 70
     0
340
55
  0
ENDTAB
  0
TABLE
  2
BLOCK_RECORD
  5
1
330
0
100
AcDbSymbolTable
 70
     5
  0
BLOCK_RECORD
  5
70
102
{ACAD_XDICTIONARY
360
8D8
102
}
330
1
100
AcDbSymbolTableRecord
100
AcDbBlockTableRecord
  2
*Model_Space
340
73
 70
     0
280
     1
281
     0
  0
BLOCK_RECORD
  5
6C
330
1
100
AcDbSymbolTableRecord
100
AcDbBlockTableRecord
  2
*Paper_Space
340
6F
 70
     0
280
     1
281
     0
  0
BLOCK_RECORD
  5
74
330
1
100
AcDbSymbolTableRecord
100
AcDbBlockTableRecord
  2
*Paper_Space0
340
77
 70
     0
280
     1
281
     0
  0
BLOCK_RECORD
  5
8DA
102
{ACAD_XDICTIONARY
360
1533
102
}
330
1
100
AcDbSymbolTableRecord
100
AcDbBlockTableRecord
  2
AMSTD_Modern_1660.241_3D
340
0
310
2800000020000000200000000100080000000000000400000000000000000000000000000000000000000000000080000080000000808000800000008000800080800000C0C0C000C0DCC000F0CAA6000020400000206000002080000020A0000020C0000020E00000400000004020000040400000406000004080000040A0
310
000040C0000040E00000600000006020000060400000606000006080000060A0000060C0000060E00000800000008020000080400000806000008080000080A0000080C0000080E00000A0000000A0200000A0400000A0600000A0800000A0A00000A0C00000A0E00000C0000000C0200000C0400000C0600000C0800000C0
310
A00000C0C00000C0E00000E0000000E0200000E0400000E0600000E0800000E0A00000E0C00000E0E00040000000400020004000400040006000400080004000A0004000C0004000E00040200000402020004020400040206000402080004020A0004020C0004020E000404000004040200040404000404060004040800040
310
40A0004040C0004040E00040600000406020004060400040606000406080004060A0004060C0004060E00040800000408020004080400040806000408080004080A0004080C0004080E00040A0000040A0200040A0400040A0600040A0800040A0A00040A0C00040A0E00040C0000040C0200040C0400040C0600040C08000
310
40C0A00040C0C00040C0E00040E0000040E0200040E0400040E0600040E0800040E0A00040E0C00040E0E00080000000800020008000400080006000800080008000A0008000C0008000E00080200000802020008020400080206000802080008020A0008020C0008020E00080400000804020008040400080406000804080
310
008040A0008040C0008040E00080600000806020008060400080606000806080008060A0008060C0008060E00080800000808020008080400080806000808080008080A0008080C0008080E00080A0000080A0200080A0400080A0600080A0800080A0A00080A0C00080A0E00080C0000080C0200080C0400080C0600080C0
310
800080C0A00080C0C00080C0E00080E0000080E0200080E0400080E0600080E0800080E0A00080E0C00080E0E000C0000000C0002000C0004000C0006000C0008000C000A000C000C000C000E000C0200000C0202000C0204000C0206000C0208000C020A000C020C000C020E000C0400000C0402000C0404000C0406000C0
310
408000C040A000C040C000C040E000C0600000C0602000C0604000C0606000C0608000C060A000C060C000C060E000C0800000C0802000C0804000C0806000C0808000C080A000C080C000C080E000C0A00000C0A02000C0A04000C0A06000C0A08000C0A0A000C0A0C000C0A0E000C0C00000C0C02000C0C04000C0C06000
310
C0C08000C0C0A000F0FBFF00A4A0A000808080000000FF0000FF000000FFFF00FF000000FF00FF00FFFF0000FFFFFF004949494949494949494949494949494949494949494949494949494949494949494949494949494949494949494949FDFD49494949494949494949494949494949494949494949494949494949FDFD
310
FDFDFDFD49494949494949494949494949494949494949494949494949FD49FD49FDFD49FD494949494949494949494949494949494949494949494949FDFD4949FD49FDFD494949494949494949494949494949494949494949494949FD49FDFDFDFD49FD49494949494949494949494949494949494949494949494949FD
310
FDFDFDFDFD4949494949494949494949494949494949494949494949494949494949FD49494949494949494949494949494949494949494949494949494949494949FD49494949494949494949494949494949494949494949494949494949494949FD49494949494949494949494949494949494949494949494949494949
310
494949FD49494949494949494949494949494949494949494949494949494949494949FD494949494949494949494949494949494949494949494949494949FDFDFDFDFDFDFDFD49494949494949494949494949494949494949494949FDFDFDFDFDFDFDFDFDFDFDFD49494949494949494949494949494949494949FDFD49
310
FDFDFDFDFDFDFDFD49FDFD494949494949494949494949494949494949FD4949FDFDFD49FDFDFDFD4949FD4949494949494949494949494949494949FDFD4949FDFDFD49FDFDFDFD4949FDFD49494949494949494949494949494949FD494949FDFDFDFDFDFDFDFD494949FD494949494949494949494949494949FD494949
310
4949FDFDFDFDFDFD4949494949FD4949494949494949494949494949FD49494949FD49FD49FDFD49FD49494949FD4949494949494949494949494949FD49494949FDFD4949FD49FDFD49494949FD4949494949494949494949494949FD49494949FDFD4949FD49FDFD49494949FD4949494949494949494949494949FD4949
310
4949FD49FD49FDFD49FD49494949FD4949494949494949494949494949FD4949494949FDFDFDFDFDFD4949494949FD494949494949494949494949494949FD4949494949FDFDFDFD4949494949FD49494949494949494949494949494949FD49494949494949FD494949494949FD4949494949494949494949494949494949
310
FD494949494949FD4949494949FD494949494949494949494949494949494949FDFD4949494949FD4949494949FD49494949494949494949494949494949494949FDFDFD494949FD4949FDFDFD49494949494949494949494949494949494949494949FDFDFD49FDFDFDFD4949494949494949494949494949494949494949
310
49494949494949FDFDFD49494949494949494949494949494949494949494949494949494949494949494949494949494949494949494949
102
{BLKREFS
331
CF5
102
}
 70
     1
280
     1
281
     1
1001
AcDbDynamicBlockGUID
1000
{B19D315B-A5ED-4598-9EFD-5F0D58DDB74D}
  0
ENDTAB
  0
ENDSEC
  0
SECTION
  2
BLOCKS
  0
BLOCK
  5
71
330
70
100
AcDbEntity
  8
0
100
AcDbBlockBegin
  2
*Model_Space
 70
     0
 10
0.0
 20
0.0
 30
0.0
  3
*Model_Space
  1

  0
ENDBLK
  5
72
330
70
100
AcDbEntity
  8
0
100
AcDbBlockEnd
  0
BLOCK
  5
6D
330
6C
100
AcDbEntity
 67
     1
  8
0
100
AcDbBlockBegin
  2
*Paper_Space
 70
     0
 10
0.0
 20
0.0
 30
0.0
  3
*Paper_Space
  1

  0
ENDBLK
  5
6E
330
6C
100
AcDbEntity
 67
     1
  8
0
100
AcDbBlockEnd
  0
BLOCK
  5
75
330
74
100
AcDbEntity
 67
     1
  8
0
100
AcDbBlockBegin
  2
*Paper_Space0
 70
     0
 10
0.0
 20
0.0
 30
0.0
  3
*Paper_Space0
  1

  0
ENDBLK
  5
76
330
74
100
AcDbEntity
 67
     1
  8
0
100
AcDbBlockEnd
  0
BLOCK
  5
8DB
330
8DA
100
AcDbEntity
  8
0
100
AcDbBlockBegin
  2
AMSTD_Modern_1660.241_3D
 70
     0
 10
0.0
 20
0.0
 30
0.0
  3
AMSTD_Modern_1660.241_3D
  1

  0
POLYLINE
  5
111B
330
8DA
100
AcDbEntity
  8
1660.241
100
AcDbPolyFaceMesh
 66
     1
 10
0.0
 20
0.0
 30
0.0
 70
    64
 71
    11
 72
     5
1001
REVIT
1002
{
1070
     4
1000
6414
1002
}
1002
{
1070
     2
1000
-2001160
1002
}
  0
VERTEX
  5
111C
330
111B
100
AcDbEntity
  8
1660.241
100
AcDbVertex
100
AcDbPolyFaceMeshVertex
 10
0.0000000000000004
 20
-1.125000033527437
 30
-0.0000000000000156
 70
   192
  0
VERTEX
  5
111D
330
111B
100
AcDbEntity
  8
1660.241
100
AcDbVertex
100
AcDbPolyFaceMeshVertex
 10
-0.5877852737906057
 20
-0.9340170063076659
 30
-0.0000000000000069
 70
   192
  0
VERTEX
  5
111E
330
111B
100
AcDbEntity
  8
1660.241
100
AcDbVertex
100
AcDbPolyFaceMeshVertex
 10
-0.9510565102102834
 20
-0.4340169914065047
 30
0.0000000000000038
 70
   192
  0
VERTEX
  5
111F
330
111B
100
AcDbEntity
  8
1660.241
100
AcDbVertex
100
AcDbPolyFaceMeshVertex
 10
-0.9510565102102834
 20
0.1840169839562731
 30
0.0000000000000123
 70
   192
  0
VERTEX
  5
1120
330
111B
100
AcDbEntity
  8
1660.241
100
AcDbVertex
100
AcDbPolyFaceMeshVertex
 10
-0.5877852737906057
 20
0.6840169988574343
 30
0.0000000000000155
 70
   192
  0
VERTEX
  5
1121
330
111B
100
AcDbEntity
  8
1660.241
100
AcDbVertex
100
AcDbPolyFaceMeshVertex
 10
-0.0000000000000028
 20
0.8750000260772061
 30
0.0000000000000121
 70
   192
  0
VERTEX
  5
1122
330
111B
100
AcDbEntity
  8
1660.241
100
AcDbVertex
100
AcDbPolyFaceMeshVertex
 10
-0.0000000000000009
 20
0.2750000171365099
 30
0.0000000000000038
 70
   192
  0
VERTEX
  5
1123
330
111B
100
AcDbEntity
  8
1660.241
100
AcDbVertex
100
AcDbPolyFaceMeshVertex
 10
-0.0000000000000004
 20
0.1250000037254648
 30
0.0000000000000017
 70
   192
  0
VERTEX
  5
1124
330
111B
100
AcDbEntity
  8
1660.241
100
AcDbVertex
100
AcDbPolyFaceMeshVertex
 10
0.0000000000000004
 20
-0.1250000037254648
 30
-0.0000000000000017
 70
   192
  0
VERTEX
  5
1125
330
111B
100
AcDbEntity
  8
1660.241
100
AcDbVertex
100
AcDbPolyFaceMeshVertex
 10
0.0000000000000004
 20
-0.3750000111756964
 30
-0.0000000000000052
 70
   192
  0
VERTEX
  5
1126
330
111B
100
AcDbEntity
  8
1660.241
100
AcDbVertex
100
AcDbPolyFaceMeshVertex
 10
0.0000000000000004
 20
-0.5250000245867415
 30
-0.0000000000000073
 70
   192
  0
VERTEX
  5
1127
330
111B
100
AcDbEntity
  8
1660.241
100
AcDbFaceRecord
 10
0.0
 20
0.0
 30
0.0
 70
   128
 71
     5
 72
     6
 73
    -7
 74
     4
  0
VERTEX
  5
1128
330
111B
100
AcDbEntity
  8
1660.241
100
AcDbFaceRecord
 10
0.0
 20
0.0
 30
0.0
 70
   128
 71
    -4
 72
     7
 73
     8
 74
    -9
  0
VERTEX
  5
1129
330
111B
100
AcDbEntity
  8
1660.241
100
AcDbFaceRecord
 10
0.0
 20
0.0
 30
0.0
 70
   128
 71
    10
 72
   -11
 73
    -3
 74
     9
  0
VERTEX
  5
112A
330
111B
100
AcDbEntity
  8
1660.241
100
AcDbFaceRecord
 10
0.0
 20
0.0
 30
0.0
 70
   128
 71
    11
 72
     1
 73
     2
 74
    -3
  0
VERTEX
  5
112B
330
111B
100
AcDbEntity
  8
1660.241
100
AcDbFaceRecord
 10
0.0
 20
0.0
 30
0.0
 70
   128
 71
    -9
 72
     3
 73
    -4
  0
SEQEND
  5
112C
330
111B
100
AcDbEntity
  8
1660.241
  0
POLYLINE
  5
112D
330
8DA
100
AcDbEntity
  8
1660.241
100
AcDbPolyFaceMesh
 66
     1
 10
0.0
 20
0.0
 30
0.0
 70
    64
 71
    11
 72
     5
1001
REVIT
1002
{
1070
     4
1000
6414
1002
}
1002
{
1070
     2
1000
-2001160
1002
}
  0
VERTEX
  5
112E
330
112D
100
AcDbEntity
  8
1660.241
100
AcDbVertex
100
AcDbPolyFaceMeshVertex
 10
-0.0000000000000028
 20
0.8750000260772061
 30
0.0000000000000121
 70
   192
  0
VERTEX
  5
112F
330
112D
100
AcDbEntity
  8
1660.241
100
AcDbVertex
100
AcDbPolyFaceMeshVertex
 10
0.5877852737901132
 20
0.6840169988574343
 30
0.0000000000000034
 70
   192
  0
VERTEX
  5
1130
330
112D
100
AcDbEntity
  8
1660.241
100
AcDbVertex
100
AcDbPolyFaceMeshVertex
 10
0.9510565102097908
 20
0.1840169839562731
 30
-0.0000000000000072
 70
   192
  0
VERTEX
  5
1131
330
112D
100
AcDbEntity
  8
1660.241
100
AcDbVertex
100
AcDbPolyFaceMeshVertex
 10
0.9510565102097908
 20
-0.4340169914065047
 30
-0.0000000000000158
 70
   192
  0
VERTEX
  5
1132
330
112D
100
AcDbEntity
  8
1660.241
100
AcDbVertex
100
AcDbPolyFaceMeshVertex
 10
0.5877852737901132
 20
-0.9340170063076659
 30
-0.000000000000019
 70
   192
  0
VERTEX
  5
1133
330
112D
100
AcDbEntity
  8
1660.241
100
AcDbVertex
100
AcDbPolyFaceMeshVertex
 10
0.0000000000000069
 20
-1.125000033527437
 30
-0.0000000000000156
 70
   192
  0
VERTEX
  5
1134
330
112D
100
AcDbEntity
  8
1660.241
100
AcDbVertex
100
AcDbPolyFaceMeshVertex
 10
0.000000000000003
 20
-0.5250000245867415
 30
-0.0000000000000073
 70
   192
  0
VERTEX
  5
1135
330
112D
100
AcDbEntity
  8
1660.241
100
AcDbVertex
100
AcDbPolyFaceMeshVertex
 10
0.000000000000002
 20
-0.3750000111756964
 30
-0.0000000000000052
 70
   192
  0
VERTEX
  5
1136
330
112D
100
AcDbEntity
  8
1660.241
100
AcDbVertex
100
AcDbPolyFaceMeshVertex
 10
0.0000000000000004
 20
-0.1250000037254304
 30
-0.0000000000000017
 70
   192
  0
VERTEX
  5
1137
330
112D
100
AcDbEntity
  8
1660.241
100
AcDbVertex
100
AcDbPolyFaceMeshVertex
 10
-0.0000000000000004
 20
0.1250000037254648
 30
0.0000000000000017
 70
   192
  0
VERTEX
  5
1138
330
112D
100
AcDbEntity
  8
1660.241
100
AcDbVertex
100
AcDbPolyFaceMeshVertex
 10
-0.0000000000000009
 20
0.2750000171365099
 30
0.0000000000000038
 70
   192
  0
VERTEX
  5
1139
330
112D
100
AcDbEntity
  8
1660.241
100
AcDbFaceRecord
 10
0.0
 20
0.0
 30
0.0
 70
   128
 71
     2
 72
    -3
 73
    11
 74
     1
  0
VERTEX
  5
113A
330
112D
100
AcDbEntity
  8
1660.241
100
AcDbFaceRecord
 10
0.0
 20
0.0
 30
0.0
 70
   128
 71
    10
 72
   -11
 73
    -3
 74
     9
  0
VERTEX
  5
113B
330
112D
100
AcDbEntity
  8
1660.241
100
AcDbFaceRecord
 10
0.0
 20
0.0
 30
0.0
 70
   128
 71
    -4
 72
     8
 73
    -9
 74
     3
  0
VERTEX
  5
113C
330
112D
100
AcDbEntity
  8
1660.241
100
AcDbFaceRecord
 10
0.0
 20
0.0
 30
0.0
 70
   128
 71
     4
 72
    -5
 73
     7
 74
    -8
  0
VERTEX
  5
113D
330
112D
100
AcDbEntity
  8
1660.241
100
AcDbFaceRecord
 10
0.0
 20
0.0
 30
0.0
 70
   128
 71
    -7
 72
     5
 73
     6
  0
SEQEND
  5
113E
330
112D
100
AcDbEntity
  8
1660.241
  0
POLYLINE
  5
113F
330
8DA
100
AcDbEntity
  8
1660.241
100
AcDbPolyFaceMesh
 66
     1
 10
0.0
 20
0.0
 30
0.0
 70
    64
 71
    43
 72
    54
1001
REVIT
1002
{
1070
     4
1000
6414
1002
}
1002
{
1070
     2
1000
-2001160
1002
}
  0
VERTEX
  5
1140
330
113F
100
AcDbEntity
  8
1660.241
100
AcDbVertex
100
AcDbPolyFaceMeshVertex
 10
0.0000000000000454
 20
-0.9936291910706206
 30
3.946650981903131
 70
   192
  0
VERTEX
  5
1141
330
113F
100
AcDbEntity
  8
1660.241
100
AcDbVertex
100
AcDbPolyFaceMeshVertex
 10
0.00000000000004
 20
-0.6467927433548612
 30
3.427573442459161
 70
   192
  0
VERTEX
  5
1142
330
113F
100
AcDbEntity
  8
1660.241
100
AcDbVertex
100
AcDbPolyFaceMeshVertex
 10
0.0000000000000334
 20
-0.5250000245867415
 30
2.815280020237024
 70
   192
  0
VERTEX
  5
1143
330
113F
100
AcDbEntity
  8
1660.241
100
AcDbVertex
100
AcDbPolyFaceMeshVertex
 10
0.1035276129839342
 20
-0.5113703347740813
 30
2.815280020237024
 70
   192
  0
VERTEX
  5
1144
330
113F
100
AcDbEntity
  8
1660.241
100
AcDbVertex
100
AcDbPolyFaceMeshVertex
 10
0.2000000104305666
 20
-0.4714101590214415
 30
2.815280020237024
 70
   192
  0
VERTEX
  5
1145
330
113F
100
AcDbEntity
  8
1660.241
100
AcDbVertex
100
AcDbPolyFaceMeshVertex
 10
0.2828427180645388
 20
-0.4078427217899008
 30
2.815280020237024
 70
   192
  0
VERTEX
  5
1146
330
113F
100
AcDbEntity
  8
1660.241
100
AcDbVertex
100
AcDbPolyFaceMeshVertex
 10
0.3464101552960794
 20
-0.3250000141559286
 30
2.815280020237024
 70
   192
  0
VERTEX
  5
1147
330
113F
100
AcDbEntity
  8
1660.241
100
AcDbVertex
100
AcDbPolyFaceMeshVertex
 10
0.3863703310487192
 20
-0.2285276167092962
 30
2.815280020237024
 70
   192
  0
VERTEX
  5
1148
330
113F
100
AcDbEntity
  8
1660.241
100
AcDbVertex
100
AcDbPolyFaceMeshVertex
 10
0.4000000208613795
 20
-0.1250000037254835
 30
2.815280020237024
 70
   192
  0
VERTEX
  5
1149
330
113F
100
AcDbEntity
  8
1660.241
100
AcDbVertex
100
AcDbPolyFaceMeshVertex
 10
0.3863703310487192
 20
-0.0214723907409353
 30
2.815280020237024
 70
   192
  0
VERTEX
  5
114A
330
113F
100
AcDbEntity
  8
1660.241
100
AcDbVertex
100
AcDbPolyFaceMeshVertex
 10
0.3464101552960794
 20
0.0750000067056971
 30
2.815280020237024
 70
   192
  0
VERTEX
  5
114B
330
113F
100
AcDbEntity
  8
1660.241
100
AcDbVertex
100
AcDbPolyFaceMeshVertex
 10
0.2828427180645388
 20
0.1578427143396692
 30
2.815280020237024
 70
   192
  0
VERTEX
  5
114C
330
113F
100
AcDbEntity
  8
1660.241
100
AcDbVertex
100
AcDbPolyFaceMeshVertex
 10
0.2000000104305666
 20
0.2214101515712099
 30
2.815280020237024
 70
   192
  0
VERTEX
  5
114D
330
113F
100
AcDbEntity
  8
1660.241
100
AcDbVertex
100
AcDbPolyFaceMeshVertex
 10
0.1035276129839342
 20
0.2613703273238497
 30
2.815280020237024
 70
   192
  0
VERTEX
  5
114E
330
113F
100
AcDbEntity
  8
1660.241
100
AcDbVertex
100
AcDbPolyFaceMeshVertex
 10
0.0000000000000299
 20
0.2750000171365099
 30
2.815280020237024
 70
   192
  0
VERTEX
  5
114F
330
113F
100
AcDbEntity
  8
1660.241
100
AcDbVertex
100
AcDbPolyFaceMeshVertex
 10
0.0000000000000393
 20
0.0923108719291048
 30
3.733720421791132
 70
   192
  0
VERTEX
  5
1150
330
113F
100
AcDbEntity
  8
1660.241
100
AcDbVertex
100
AcDbPolyFaceMeshVertex
 10
0.0000000000000473
 20
-0.4279437325893088
 30
4.512336373329217
 70
   192
  0
VERTEX
  5
1151
330
113F
100
AcDbEntity
  8
1660.241
100
AcDbVertex
100
AcDbPolyFaceMeshVertex
 10
0.1035276129839342
 20
-0.4375813566146536
 30
4.502698659896905
 70
   192
  0
VERTEX
  5
1152
330
113F
100
AcDbEntity
  8
1660.241
100
AcDbVertex
100
AcDbPolyFaceMeshVertex
 10
0.2000000104305666
 20
-0.4658374674616499
 30
4.474442481994683
 70
   192
  0
VERTEX
  5
1153
330
113F
100
AcDbEntity
  8
1660.241
100
AcDbVertex
100
AcDbPolyFaceMeshVertex
 10
0.2828427180645388
 20
-0.5107864625750227
 30
4.429493665695245
 70
   192
  0
VERTEX
  5
1154
330
113F
100
AcDbEntity
  8
1660.241
100
AcDbVertex
100
AcDbPolyFaceMeshVertex
 10
0.3464101552960794
 20
-0.5693651027975722
 30
4.370914936065728
 70
   192
  0
VERTEX
  5
1155
330
113F
100
AcDbEntity
  8
1660.241
100
AcDbVertex
100
AcDbPolyFaceMeshVertex
 10
0.3863703310487192
 20
-0.6375813670454664
 30
4.302698850631768
 70
   192
  0
VERTEX
  5
1156
330
113F
100
AcDbEntity
  8
1660.241
100
AcDbVertex
100
AcDbPolyFaceMeshVertex
 10
0.4000000208613795
 20
-0.7107864506540937
 30
4.22949349880224
 70
   192
  0
VERTEX
  5
1157
330
113F
100
AcDbEntity
  8
1660.241
100
AcDbVertex
100
AcDbPolyFaceMeshVertex
 10
0.3863703310487192
 20
-0.783991534262721
 30
4.156288504600579
 70
   192
  0
VERTEX
  5
1158
330
113F
100
AcDbEntity
  8
1660.241
100
AcDbVertex
100
AcDbPolyFaceMeshVertex
 10
0.3464101552960794
 20
-0.8522077985106152
 30
4.08807241916662
 70
   192
  0
VERTEX
  5
1159
330
113F
100
AcDbEntity
  8
1660.241
100
AcDbVertex
100
AcDbPolyFaceMeshVertex
 10
0.2828427180645388
 20
-0.9107864834366484
 30
4.029493689537103
 70
   192
  0
VERTEX
  5
115A
330
113F
100
AcDbEntity
  8
1660.241
100
AcDbVertex
100
AcDbPolyFaceMeshVertex
 10
0.2000000104305666
 20
-0.955735389143054
 30
3.984544515609796
 70
   192
  0
VERTEX
  5
115B
330
113F
100
AcDbEntity
  8
1660.241
100
AcDbVertex
100
AcDbPolyFaceMeshVertex
 10
0.1035276129839342
 20
-0.9839914776383086
 30
3.956288695335443
 70
   192
  0
VERTEX
  5
115C
330
113F
100
AcDbEntity
  8
1660.241
100
AcDbVertex
100
AcDbPolyFaceMeshVertex
 10
0.2935660555956285
 20
0.0189600102605181
 30
3.566306233406122
 70
   192
  0
VERTEX
  5
115D
330
113F
100
AcDbEntity
  8
1660.241
100
AcDbVertex
100
AcDbPolyFaceMeshVertex
 10
0.3823388367888849
 20
-0.385839063674037
 30
3.535663962364252
 70
   192
  0
VERTEX
  5
115E
330
113F
100
AcDbEntity
  8
1660.241
100
AcDbVertex
100
AcDbPolyFaceMeshVertex
 10
0.2224111631510179
 20
-0.1421390525063617
 30
4.043554186821038
 70
   192
  0
VERTEX
  5
115F
330
113F
100
AcDbEntity
  8
1660.241
100
AcDbVertex
100
AcDbPolyFaceMeshVertex
 10
0.263434365391485
 20
-0.6309347189961118
 30
3.624206900596674
 70
   192
  0
VERTEX
  5
1160
330
113F
100
AcDbEntity
  8
1660.241
100
AcDbVertex
100
AcDbPolyFaceMeshVertex
 10
0.3923927396533411
 20
-0.3364613838492079
 30
3.872501134872491
 70
   192
  0
VERTEX
  5
1161
330
113F
100
AcDbEntity
  8
1660.241
100
AcDbVertex
100
AcDbPolyFaceMeshVertex
 10
0.0000000000000339
 20
0.1974643282594042
 30
3.205078125000055
 70
   192
  0
VERTEX
  5
1162
330
113F
100
AcDbEntity
  8
1660.241
100
AcDbVertex
100
AcDbPolyFaceMeshVertex
 10
0.260409705340616
 20
-0.4791228510437651
 30
3.226113438606317
 70
   192
  0
VERTEX
  5
1163
330
113F
100
AcDbEntity
  8
1660.241
100
AcDbVertex
100
AcDbPolyFaceMeshVertex
 10
0.3615008443591516
 20
0.0079617798330145
 30
3.221089482307489
 70
   192
  0
VERTEX
  5
1164
330
113F
100
AcDbEntity
  8
1660.241
100
AcDbVertex
100
AcDbPolyFaceMeshVertex
 10
0.3987130522725504
 20
-0.1981741469351692
 30
3.215436458587701
 70
   192
  0
VERTEX
  5
1165
330
113F
100
AcDbEntity
  8
1660.241
100
AcDbVertex
100
AcDbPolyFaceMeshVertex
 10
0.2274576500055712
 20
0.1677077673377352
 30
3.225021243095453
 70
   192
  0
VERTEX
  5
1166
330
113F
100
AcDbEntity
  8
1660.241
100
AcDbVertex
100
AcDbPolyFaceMeshVertex
 10
0.3762090057132166
 20
-0.5787281133232756
 30
3.856404304504449
 70
   192
  0
VERTEX
  5
1167
330
113F
100
AcDbEntity
  8
1660.241
100
AcDbVertex
100
AcDbPolyFaceMeshVertex
 10
0.1539862118658941
 20
0.1185994483532267
 30
3.576357722282465
 70
   192
  0
VERTEX
  5
1168
330
113F
100
AcDbEntity
  8
1660.241
100
AcDbVertex
100
AcDbPolyFaceMeshVertex
 10
0.3788762837645929
 20
-0.1326643810605748
 30
3.563694834709222
 70
   192
  0
VERTEX
  5
1169
330
113F
100
AcDbEntity
  8
1660.241
100
AcDbVertex
100
AcDbPolyFaceMeshVertex
 10
0.0000000000000433
 20
-0.1678164275361342
 30
4.123028397560174
 70
   192
  0
VERTEX
  5
116A
330
113F
100
AcDbEntity
  8
1660.241
100
AcDbVertex
100
AcDbPolyFaceMeshVertex
 10
0.3299074843523424
 20
-0.1664993120355649
 30
3.873669505119379
 70
   192
  0
VERTEX
  5
116B
330
113F
100
AcDbEntity
  8
1660.241
100
AcDbFaceRecord
 10
0.0
 20
0.0
 30
0.0
 70
   128
 71
   -13
 72
   -38
 73
    12
  0
VERTEX
  5
116C
330
113F
100
AcDbEntity
  8
1660.241
100
AcDbFaceRecord
 10
0.0
 20
0.0
 30
0.0
 70
   128
 71
   -38
 72
   -14
 73
   -34
  0
VERTEX
  5
116D
330
113F
100
AcDbEntity
  8
1660.241
100
AcDbFaceRecord
 10
0.0
 20
0.0
 30
0.0
 70
   128
 71
     8
 72
    -9
 73
   -37
  0
VERTEX
  5
116E
330
113F
100
AcDbEntity
  8
1660.241
100
AcDbFaceRecord
 10
0.0
 20
0.0
 30
0.0
 70
   128
 71
   -33
 72
   -43
 73
   -21
  0
VERTEX
  5
116F
330
113F
100
AcDbEntity
  8
1660.241
100
AcDbFaceRecord
 10
0.0
 20
0.0
 30
0.0
 70
   128
 71
   -40
 72
   -31
 73
   -29
  0
VERTEX
  5
1170
330
113F
100
AcDbEntity
  8
1660.241
100
AcDbFaceRecord
 10
0.0
 20
0.0
 30
0.0
 70
   128
 71
   -38
 72
    11
 73
   -12
  0
VERTEX
  5
1171
330
113F
100
AcDbEntity
  8
1660.241
100
AcDbFaceRecord
 10
0.0
 20
0.0
 30
0.0
 70
   128
 71
   -28
 72
   -32
 73
    27
  0
VERTEX
  5
1172
330
113F
100
AcDbEntity
  8
1660.241
100
AcDbFaceRecord
 10
0.0
 20
0.0
 30
0.0
 70
   128
 71
    10
 72
   -11
 73
   -36
  0
VERTEX
  5
1173
330
113F
100
AcDbEntity
  8
1660.241
100
AcDbFaceRecord
 10
0.0
 20
0.0
 30
0.0
 70
   128
 71
   -30
 72
   -35
 73
   -37
  0
VERTEX
  5
1174
330
113F
100
AcDbEntity
  8
1660.241
100
AcDbFaceRecord
 10
0.0
 20
0.0
 30
0.0
 70
   128
 71
    17
 72
   -18
 73
    42
  0
VERTEX
  5
1175
330
113F
100
AcDbEntity
  8
1660.241
100
AcDbFaceRecord
 10
0.0
 20
0.0
 30
0.0
 70
   128
 71
   -38
 72
   -40
 73
   -29
  0
VERTEX
  5
1176
330
113F
100
AcDbEntity
  8
1660.241
100
AcDbFaceRecord
 10
0.0
 20
0.0
 30
0.0
 70
   128
 71
    24
 72
   -25
 73
   -39
  0
VERTEX
  5
1177
330
113F
100
AcDbEntity
  8
1660.241
100
AcDbFaceRecord
 10
0.0
 20
0.0
 30
0.0
 70
   128
 71
    -6
 72
   -35
 73
     5
  0
VERTEX
  5
1178
330
113F
100
AcDbEntity
  8
1660.241
100
AcDbFaceRecord
 10
0.0
 20
0.0
 30
0.0
 70
   128
 71
    -7
 72
   -37
 73
   -35
  0
VERTEX
  5
1179
330
113F
100
AcDbEntity
  8
1660.241
100
AcDbFaceRecord
 10
0.0
 20
0.0
 30
0.0
 70
   128
 71
   -31
 72
   -43
 73
   -29
  0
VERTEX
  5
117A
330
113F
100
AcDbEntity
  8
1660.241
100
AcDbFaceRecord
 10
0.0
 20
0.0
 30
0.0
 70
   128
 71
   -30
 72
   -37
 73
   -41
  0
VERTEX
  5
117B
330
113F
100
AcDbEntity
  8
1660.241
100
AcDbFaceRecord
 10
0.0
 20
0.0
 30
0.0
 70
   128
 71
   -35
 72
     6
 73
    -7
  0
VERTEX
  5
117C
330
113F
100
AcDbEntity
  8
1660.241
100
AcDbFaceRecord
 10
0.0
 20
0.0
 30
0.0
 70
   128
 71
    -5
 72
   -35
 73
     4
  0
VERTEX
  5
117D
330
113F
100
AcDbEntity
  8
1660.241
100
AcDbFaceRecord
 10
0.0
 20
0.0
 30
0.0
 70
   128
 71
   -31
 72
    19
 73
   -20
  0
VERTEX
  5
117E
330
113F
100
AcDbEntity
  8
1660.241
100
AcDbFaceRecord
 10
0.0
 20
0.0
 30
0.0
 70
   128
 71
     2
 72
     3
 73
    -4
  0
VERTEX
  5
117F
330
113F
100
AcDbEntity
  8
1660.241
100
AcDbFaceRecord
 10
0.0
 20
0.0
 30
0.0
 70
   128
 71
   -32
 72
   -35
 73
   -30
  0
VERTEX
  5
1180
330
113F
100
AcDbEntity
  8
1660.241
100
AcDbFaceRecord
 10
0.0
 20
0.0
 30
0.0
 70
   128
 71
    -2
 72
   -35
 73
   -32
  0
VERTEX
  5
1181
330
113F
100
AcDbEntity
  8
1660.241
100
AcDbFaceRecord
 10
0.0
 20
0.0
 30
0.0
 70
   128
 71
    -8
 72
   -37
 73
     7
  0
VERTEX
  5
1182
330
113F
100
AcDbEntity
  8
1660.241
100
AcDbFaceRecord
 10
0.0
 20
0.0
 30
0.0
 70
   128
 71
    14
 72
    15
 73
   -34
  0
VERTEX
  5
1183
330
113F
100
AcDbEntity
  8
1660.241
100
AcDbFaceRecord
 10
0.0
 20
0.0
 30
0.0
 70
   128
 71
   -36
 72
   -38
 73
   -29
  0
VERTEX
  5
1184
330
113F
100
AcDbEntity
  8
1660.241
100
AcDbFaceRecord
 10
0.0
 20
0.0
 30
0.0
 70
   128
 71
    -2
 72
    -4
 73
   -35
  0
VERTEX
  5
1185
330
113F
100
AcDbEntity
  8
1660.241
100
AcDbFaceRecord
 10
0.0
 20
0.0
 30
0.0
 70
   128
 71
   -39
 72
    23
 73
   -24
  0
VERTEX
  5
1186
330
113F
100
AcDbEntity
  8
1660.241
100
AcDbFaceRecord
 10
0.0
 20
0.0
 30
0.0
 70
   128
 71
   -22
 72
   -33
 73
    21
  0
VERTEX
  5
1187
330
113F
100
AcDbEntity
  8
1660.241
100
AcDbFaceRecord
 10
0.0
 20
0.0
 30
0.0
 70
   128
 71
   -34
 72
   -40
 73
   -38
  0
VERTEX
  5
1188
330
113F
100
AcDbEntity
  8
1660.241
100
AcDbFaceRecord
 10
0.0
 20
0.0
 30
0.0
 70
   128
 71
   -33
 72
   -23
 73
   -39
  0
VERTEX
  5
1189
330
113F
100
AcDbEntity
  8
1660.241
100
AcDbFaceRecord
 10
0.0
 20
0.0
 30
0.0
 70
   128
 71
   -31
 72
   -42
 73
   -18
  0
VERTEX
  5
118A
330
113F
100
AcDbEntity
  8
1660.241
100
AcDbFaceRecord
 10
0.0
 20
0.0
 30
0.0
 70
   128
 71
   -31
 72
    18
 73
   -19
  0
VERTEX
  5
118B
330
113F
100
AcDbEntity
  8
1660.241
100
AcDbFaceRecord
 10
0.0
 20
0.0
 30
0.0
 70
   128
 71
   -43
 72
   -41
 73
   -29
  0
VERTEX
  5
118C
330
113F
100
AcDbEntity
  8
1660.241
100
AcDbFaceRecord
 10
0.0
 20
0.0
 30
0.0
 70
   128
 71
    20
 72
   -21
 73
   -31
  0
VERTEX
  5
118D
330
113F
100
AcDbEntity
  8
1660.241
100
AcDbFaceRecord
 10
0.0
 20
0.0
 30
0.0
 70
   128
 71
   -41
 72
   -33
 73
   -30
  0
VERTEX
  5
118E
330
113F
100
AcDbEntity
  8
1660.241
100
AcDbFaceRecord
 10
0.0
 20
0.0
 30
0.0
 70
   128
 71
   -21
 72
   -43
 73
   -31
  0
VERTEX
  5
118F
330
113F
100
AcDbEntity
  8
1660.241
100
AcDbFaceRecord
 10
0.0
 20
0.0
 30
0.0
 70
   128
 71
   -31
 72
    16
 73
   -42
  0
VERTEX
  5
1190
330
113F
100
AcDbEntity
  8
1660.241
100
AcDbFaceRecord
 10
0.0
 20
0.0
 30
0.0
 70
   128
 71
   -31
 72
   -40
 73
   -16
  0
VERTEX
  5
1191
330
113F
100
AcDbEntity
  8
1660.241
100
AcDbFaceRecord
 10
0.0
 20
0.0
 30
0.0
 70
   128
 71
   -28
 72
    -2
 73
   -32
  0
VERTEX
  5
1192
330
113F
100
AcDbEntity
  8
1660.241
100
AcDbFaceRecord
 10
0.0
 20
0.0
 30
0.0
 70
   128
 71
     1
 72
    -2
 73
    28
  0
VERTEX
  5
1193
330
113F
100
AcDbEntity
  8
1660.241
100
AcDbFaceRecord
 10
0.0
 20
0.0
 30
0.0
 70
   128
 71
    -9
 72
   -36
 73
   -37
  0
VERTEX
  5
1194
330
113F
100
AcDbEntity
  8
1660.241
100
AcDbFaceRecord
 10
0.0
 20
0.0
 30
0.0
 70
   128
 71
     9
 72
   -10
 73
   -36
  0
VERTEX
  5
1195
330
113F
100
AcDbEntity
  8
1660.241
100
AcDbFaceRecord
 10
0.0
 20
0.0
 30
0.0
 70
   128
 71
   -39
 72
    25
 73
   -26
  0
VERTEX
  5
1196
330
113F
100
AcDbEntity
  8
1660.241
100
AcDbFaceRecord
 10
0.0
 20
0.0
 30
0.0
 70
   128
 71
   -26
 72
   -32
 73
   -39
  0
VERTEX
  5
1197
330
113F
100
AcDbEntity
  8
1660.241
100
AcDbFaceRecord
 10
0.0
 20
0.0
 30
0.0
 70
   128
 71
   -14
 72
   -38
 73
    13
  0
VERTEX
  5
1198
330
113F
100
AcDbEntity
  8
1660.241
100
AcDbFaceRecord
 10
0.0
 20
0.0
 30
0.0
 70
   128
 71
    26
 72
   -27
 73
   -32
  0
VERTEX
  5
1199
330
113F
100
AcDbEntity
  8
1660.241
100
AcDbFaceRecord
 10
0.0
 20
0.0
 30
0.0
 70
   128
 71
   -40
 72
    34
 73
   -16
  0
VERTEX
  5
119A
330
113F
100
AcDbEntity
  8
1660.241
100
AcDbFaceRecord
 10
0.0
 20
0.0
 30
0.0
 70
   128
 71
   -32
 72
   -30
 73
   -39
  0
VERTEX
  5
119B
330
113F
100
AcDbEntity
  8
1660.241
100
AcDbFaceRecord
 10
0.0
 20
0.0
 30
0.0
 70
   128
 71
    22
 72
   -23
 73
   -33
  0
VERTEX
  5
119C
330
113F
100
AcDbEntity
  8
1660.241
100
AcDbFaceRecord
 10
0.0
 20
0.0
 30
0.0
 70
   128
 71
   -37
 72
   -36
 73
   -41
  0
VERTEX
  5
119D
330
113F
100
AcDbEntity
  8
1660.241
100
AcDbFaceRecord
 10
0.0
 20
0.0
 30
0.0
 70
   128
 71
   -33
 72
   -39
 73
   -30
  0
VERTEX
  5
119E
330
113F
100
AcDbEntity
  8
1660.241
100
AcDbFaceRecord
 10
0.0
 20
0.0
 30
0.0
 70
   128
 71
   -11
 72
   -38
 73
   -36
  0
VERTEX
  5
119F
330
113F
100
AcDbEntity
  8
1660.241
100
AcDbFaceRecord
 10
0.0
 20
0.0
 30
0.0
 70
   128
 71
   -41
 72
   -43
 73
   -33
  0
VERTEX
  5
11A0
330
113F
100
AcDbEntity
  8
1660.241
100
AcDbFaceRecord
 10
0.0
 20
0.0
 30
0.0
 70
   128
 71
   -36
 72
   -29
 73
   -41
  0
SEQEND
  5
11A1
330
113F
100
AcDbEntity
  8
1660.241
  0
POLYLINE
  5
11A2
330
8DA
100
AcDbEntity
  8
1660.241
100
AcDbPolyFaceMesh
 66
     1
 10
0.0
 20
0.0
 30
0.0
 70
    64
 71
    43
 72
    54
1001
REVIT
1002
{
1070
     4
1000
6414
1002
}
1002
{
1070
     2
1000
-2001160
1002
}
  0
VERTEX
  5
11A3
330
11A2
100
AcDbEntity
  8
1660.241
100
AcDbVertex
100
AcDbPolyFaceMeshVertex
 10
0.0000000000000312
 20
-0.5250000245867415
 30
2.815280020237024
 70
   192
  0
VERTEX
  5
11A4
330
11A2
100
AcDbEntity
  8
1660.241
100
AcDbVertex
100
AcDbPolyFaceMeshVertex
 10
0.0000000000000375
 20
-0.6467927433548612
 30
3.427573442459161
 70
   192
  0
VERTEX
  5
11A5
330
11A2
100
AcDbEntity
  8
1660.241
100
AcDbVertex
100
AcDbPolyFaceMeshVertex
 10
0.0000000000000454
 20
-0.9936291910706206
 30
3.946650981903131
 70
   192
  0
VERTEX
  5
11A6
330
11A2
100
AcDbEntity
  8
1660.241
100
AcDbVertex
100
AcDbPolyFaceMeshVertex
 10
-0.1035276129844266
 20
-0.9839914776383086
 30
3.956288695335443
 70
   192
  0
VERTEX
  5
11A7
330
11A2
100
AcDbEntity
  8
1660.241
100
AcDbVertex
100
AcDbPolyFaceMeshVertex
 10
-0.200000010431059
 20
-0.955735389143054
 30
3.984544515609796
 70
   192
  0
VERTEX
  5
11A8
330
11A2
100
AcDbEntity
  8
1660.241
100
AcDbVertex
100
AcDbPolyFaceMeshVertex
 10
-0.2828427180650311
 20
-0.9107864834366484
 30
4.029493689537103
 70
   192
  0
VERTEX
  5
11A9
330
11A2
100
AcDbEntity
  8
1660.241
100
AcDbVertex
100
AcDbPolyFaceMeshVertex
 10
-0.3464101552965718
 20
-0.8522077985106152
 30
4.08807241916662
 70
   192
  0
VERTEX
  5
11AA
330
11A2
100
AcDbEntity
  8
1660.241
100
AcDbVertex
100
AcDbPolyFaceMeshVertex
 10
-0.3863703310492116
 20
-0.783991534262721
 30
4.156288504600579
 70
   192
  0
VERTEX
  5
11AB
330
11A2
100
AcDbEntity
  8
1660.241
100
AcDbVertex
100
AcDbPolyFaceMeshVertex
 10
-0.4000000208618718
 20
-0.7107864506540937
 30
4.22949349880224
 70
   192
  0
VERTEX
  5
11AC
330
11A2
100
AcDbEntity
  8
1660.241
100
AcDbVertex
100
AcDbPolyFaceMeshVertex
 10
-0.3863703310492116
 20
-0.6375813670454664
 30
4.302698850631768
 70
   192
  0
VERTEX
  5
11AD
330
11A2
100
AcDbEntity
  8
1660.241
100
AcDbVertex
100
AcDbPolyFaceMeshVertex
 10
-0.3464101552965718
 20
-0.5693651027975722
 30
4.370914936065728
 70
   192
  0
VERTEX
  5
11AE
330
11A2
100
AcDbEntity
  8
1660.241
100
AcDbVertex
100
AcDbPolyFaceMeshVertex
 10
-0.2828427180650311
 20
-0.5107864625750227
 30
4.429493665695245
 70
   192
  0
VERTEX
  5
11AF
330
11A2
100
AcDbEntity
  8
1660.241
100
AcDbVertex
100
AcDbPolyFaceMeshVertex
 10
-0.200000010431059
 20
-0.4658374674616499
 30
4.474442481994683
 70
   192
  0
VERTEX
  5
11B0
330
11A2
100
AcDbEntity
  8
1660.241
100
AcDbVertex
100
AcDbPolyFaceMeshVertex
 10
-0.1035276129844266
 20
-0.4375813566146536
 30
4.502698659896905
 70
   192
  0
VERTEX
  5
11B1
330
11A2
100
AcDbEntity
  8
1660.241
100
AcDbVertex
100
AcDbPolyFaceMeshVertex
 10
0.0000000000000473
 20
-0.4279437325893088
 30
4.512336373329217
 70
   192
  0
VERTEX
  5
11B2
330
11A2
100
AcDbEntity
  8
1660.241
100
AcDbVertex
100
AcDbPolyFaceMeshVertex
 10
0.0000000000000393
 20
0.0923108719291048
 30
3.733720421791132
 70
   192
  0
VERTEX
  5
11B3
330
11A2
100
AcDbEntity
  8
1660.241
100
AcDbVertex
100
AcDbPolyFaceMeshVertex
 10
0.0000000000000301
 20
0.2750000171365099
 30
2.815280020237024
 70
   192
  0
VERTEX
  5
11B4
330
11A2
100
AcDbEntity
  8
1660.241
100
AcDbVertex
100
AcDbPolyFaceMeshVertex
 10
-0.1035276129844266
 20
0.2613703273238497
 30
2.815280020237024
 70
   192
  0
VERTEX
  5
11B5
330
11A2
100
AcDbEntity
  8
1660.241
100
AcDbVertex
100
AcDbPolyFaceMeshVertex
 10
-0.200000010431059
 20
0.2214101515712099
 30
2.815280020237024
 70
   192
  0
VERTEX
  5
11B6
330
11A2
100
AcDbEntity
  8
1660.241
100
AcDbVertex
100
AcDbPolyFaceMeshVertex
 10
-0.2828427180650311
 20
0.1578427143396692
 30
2.815280020237024
 70
   192
  0
VERTEX
  5
11B7
330
11A2
100
AcDbEntity
  8
1660.241
100
AcDbVertex
100
AcDbPolyFaceMeshVertex
 10
-0.3464101552965718
 20
0.0750000067056971
 30
2.815280020237024
 70
   192
  0
VERTEX
  5
11B8
330
11A2
100
AcDbEntity
  8
1660.241
100
AcDbVertex
100
AcDbPolyFaceMeshVertex
 10
-0.3863703310492116
 20
-0.0214723907409353
 30
2.815280020237024
 70
   192
  0
VERTEX
  5
11B9
330
11A2
100
AcDbEntity
  8
1660.241
100
AcDbVertex
100
AcDbPolyFaceMeshVertex
 10
-0.4000000208618718
 20
-0.1250000037254861
 30
2.815280020237024
 70
   192
  0
VERTEX
  5
11BA
330
11A2
100
AcDbEntity
  8
1660.241
100
AcDbVertex
100
AcDbPolyFaceMeshVertex
 10
-0.3863703310492116
 20
-0.2285276167092962
 30
2.815280020237024
 70
   192
  0
VERTEX
  5
11BB
330
11A2
100
AcDbEntity
  8
1660.241
100
AcDbVertex
100
AcDbPolyFaceMeshVertex
 10
-0.3464101552965718
 20
-0.3250000141559286
 30
2.815280020237024
 70
   192
  0
VERTEX
  5
11BC
330
11A2
100
AcDbEntity
  8
1660.241
100
AcDbVertex
100
AcDbPolyFaceMeshVertex
 10
-0.2828427180650311
 20
-0.4078427217899008
 30
2.815280020237024
 70
   192
  0
VERTEX
  5
11BD
330
11A2
100
AcDbEntity
  8
1660.241
100
AcDbVertex
100
AcDbPolyFaceMeshVertex
 10
-0.200000010431059
 20
-0.4714101590214415
 30
2.815280020237024
 70
   192
  0
VERTEX
  5
11BE
330
11A2
100
AcDbEntity
  8
1660.241
100
AcDbVertex
100
AcDbPolyFaceMeshVertex
 10
-0.1035276129844266
 20
-0.5113703347740813
 30
2.815280020237024
 70
   192
  0
VERTEX
  5
11BF
330
11A2
100
AcDbEntity
  8
1660.241
100
AcDbVertex
100
AcDbPolyFaceMeshVertex
 10
-0.3892872333529073
 20
-0.1922869328407688
 30
3.615835905075128
 70
   192
  0
VERTEX
  5
11C0
330
11A2
100
AcDbEntity
  8
1660.241
100
AcDbVertex
100
AcDbPolyFaceMeshVertex
 10
-0.337531864643343
 20
-0.466853197663848
 30
3.477128505706842
 70
   192
  0
VERTEX
  5
11C1
330
11A2
100
AcDbEntity
  8
1660.241
100
AcDbVertex
100
AcDbPolyFaceMeshVertex
 10
-0.2195601090791303
 20
0.1303196288647013
 30
3.417564868927057
 70
   192
  0
VERTEX
  5
11C2
330
11A2
100
AcDbEntity
  8
1660.241
100
AcDbVertex
100
AcDbPolyFaceMeshVertex
 10
-0.2196085453035909
 20
-0.1049927906131489
 30
3.98516714572912
 70
   192
  0
VERTEX
  5
11C3
330
11A2
100
AcDbEntity
  8
1660.241
100
AcDbVertex
100
AcDbPolyFaceMeshVertex
 10
0.000000000000034
 20
0.1974643282594042
 30
3.205078125000055
 70
   192
  0
VERTEX
  5
11C4
330
11A2
100
AcDbEntity
  8
1660.241
100
AcDbVertex
100
AcDbPolyFaceMeshVertex
 10
0.0000000000000439
 20
-0.2071408163754387
 30
4.181881427764947
 70
   192
  0
VERTEX
  5
11C5
330
11A2
100
AcDbEntity
  8
1660.241
100
AcDbVertex
100
AcDbPolyFaceMeshVertex
 10
-0.3988101035358983
 20
-0.2020789403466625
 30
3.239550232887323
 70
   192
  0
VERTEX
  5
11C6
330
11A2
100
AcDbEntity
  8
1660.241
100
AcDbVertex
100
AcDbPolyFaceMeshVertex
 10
-0.3988101035358983
 20
-0.4652852453289671
 30
3.874986290931757
 70
   192
  0
VERTEX
  5
11C7
330
11A2
100
AcDbEntity
  8
1660.241
100
AcDbVertex
100
AcDbPolyFaceMeshVertex
 10
-0.3607946857812482
 20
-0.3099236078558607
 30
4.009494066238458
 70
   192
  0
VERTEX
  5
11C8
330
11A2
100
AcDbEntity
  8
1660.241
100
AcDbVertex
100
AcDbPolyFaceMeshVertex
 10
-0.3607946857812482
 20
0.002889577299531
 30
3.254295945167597
 70
   192
  0
VERTEX
  5
11C9
330
11A2
100
AcDbEntity
  8
1660.241
100
AcDbVertex
100
AcDbPolyFaceMeshVertex
 10
-0.2591485306623059
 20
-0.6880022026596708
 30
3.714768648147638
 70
   192
  0
VERTEX
  5
11CA
330
11A2
100
AcDbEntity
  8
1660.241
100
AcDbVertex
100
AcDbPolyFaceMeshVertex
 10
-0.3274718821051198
 20
-0.3851471878586454
 30
3.142195701599176
 70
   192
  0
VERTEX
  5
11CB
330
11A2
100
AcDbEntity
  8
1660.241
100
AcDbVertex
100
AcDbPolyFaceMeshVertex
 10
-0.1910270154478628
 20
-0.5516614504156752
 30
3.307583212852533
 70
   192
  0
VERTEX
  5
11CC
330
11A2
100
AcDbEntity
  8
1660.241
100
AcDbVertex
100
AcDbPolyFaceMeshVertex
 10
-0.3564120233061391
 20
-0.5857272930441542
 30
3.78342211246496
 70
   192
  0
VERTEX
  5
11CD
330
11A2
100
AcDbEntity
  8
1660.241
100
AcDbVertex
100
AcDbPolyFaceMeshVertex
 10
-0.3943937569859105
 20
-0.3382659517226858
 30
3.553585410118158
 70
   192
  0
VERTEX
  5
11CE
330
11A2
100
AcDbEntity
  8
1660.241
100
AcDbFaceRecord
 10
0.0
 20
0.0
 30
0.0
 70
   128
 71
   -35
 72
    22
 73
   -23
  0
VERTEX
  5
11CF
330
11A2
100
AcDbEntity
  8
1660.241
100
AcDbFaceRecord
 10
0.0
 20
0.0
 30
0.0
 70
   128
 71
    33
 72
    17
 73
   -18
  0
VERTEX
  5
11D0
330
11A2
100
AcDbEntity
  8
1660.241
100
AcDbFaceRecord
 10
0.0
 20
0.0
 30
0.0
 70
   128
 71
   -29
 72
   -32
 73
   -31
  0
VERTEX
  5
11D1
330
11A2
100
AcDbEntity
  8
1660.241
100
AcDbFaceRecord
 10
0.0
 20
0.0
 30
0.0
 70
   128
 71
   -40
 72
   -35
 73
   -24
  0
VERTEX
  5
11D2
330
11A2
100
AcDbEntity
  8
1660.241
100
AcDbFaceRecord
 10
0.0
 20
0.0
 30
0.0
 70
   128
 71
    28
 72
    -1
 73
   -41
  0
VERTEX
  5
11D3
330
11A2
100
AcDbEntity
  8
1660.241
100
AcDbFaceRecord
 10
0.0
 20
0.0
 30
0.0
 70
   128
 71
    -8
 72
   -42
 73
     7
  0
VERTEX
  5
11D4
330
11A2
100
AcDbEntity
  8
1660.241
100
AcDbFaceRecord
 10
0.0
 20
0.0
 30
0.0
 70
   128
 71
   -35
 72
   -29
 73
   -38
  0
VERTEX
  5
11D5
330
11A2
100
AcDbEntity
  8
1660.241
100
AcDbFaceRecord
 10
0.0
 20
0.0
 30
0.0
 70
   128
 71
   -37
 72
    10
 73
   -11
  0
VERTEX
  5
11D6
330
11A2
100
AcDbEntity
  8
1660.241
100
AcDbFaceRecord
 10
0.0
 20
0.0
 30
0.0
 70
   128
 71
   -41
 72
   -30
 73
   -40
  0
VERTEX
  5
11D7
330
11A2
100
AcDbEntity
  8
1660.241
100
AcDbFaceRecord
 10
0.0
 20
0.0
 30
0.0
 70
   128
 71
   -37
 72
   -29
 73
   -36
  0
VERTEX
  5
11D8
330
11A2
100
AcDbEntity
  8
1660.241
100
AcDbFaceRecord
 10
0.0
 20
0.0
 30
0.0
 70
   128
 71
   -43
 72
   -35
 73
   -30
  0
VERTEX
  5
11D9
330
11A2
100
AcDbEntity
  8
1660.241
100
AcDbFaceRecord
 10
0.0
 20
0.0
 30
0.0
 70
   128
 71
   -40
 72
    25
 73
   -26
  0
VERTEX
  5
11DA
330
11A2
100
AcDbEntity
  8
1660.241
100
AcDbFaceRecord
 10
0.0
 20
0.0
 30
0.0
 70
   128
 71
   -33
 72
    18
 73
   -19
  0
VERTEX
  5
11DB
330
11A2
100
AcDbEntity
  8
1660.241
100
AcDbFaceRecord
 10
0.0
 20
0.0
 30
0.0
 70
   128
 71
   -36
 72
   -29
 73
   -43
  0
VERTEX
  5
11DC
330
11A2
100
AcDbEntity
  8
1660.241
100
AcDbFaceRecord
 10
0.0
 20
0.0
 30
0.0
 70
   128
 71
   -42
 72
   -43
 73
   -30
  0
VERTEX
  5
11DD
330
11A2
100
AcDbEntity
  8
1660.241
100
AcDbFaceRecord
 10
0.0
 20
0.0
 30
0.0
 70
   128
 71
   -33
 72
   -31
 73
    16
  0
VERTEX
  5
11DE
330
11A2
100
AcDbEntity
  8
1660.241
100
AcDbFaceRecord
 10
0.0
 20
0.0
 30
0.0
 70
   128
 71
   -34
 72
   -32
 73
   -13
  0
VERTEX
  5
11DF
330
11A2
100
AcDbEntity
  8
1660.241
100
AcDbFaceRecord
 10
0.0
 20
0.0
 30
0.0
 70
   128
 71
   -42
 72
   -30
 73
   -39
  0
VERTEX
  5
11E0
330
11A2
100
AcDbEntity
  8
1660.241
100
AcDbFaceRecord
 10
0.0
 20
0.0
 30
0.0
 70
   128
 71
   -31
 72
    19
 73
   -20
  0
VERTEX
  5
11E1
330
11A2
100
AcDbEntity
  8
1660.241
100
AcDbFaceRecord
 10
0.0
 20
0.0
 30
0.0
 70
   128
 71
   -22
 72
   -38
 73
    21
  0
VERTEX
  5
11E2
330
11A2
100
AcDbEntity
  8
1660.241
100
AcDbFaceRecord
 10
0.0
 20
0.0
 30
0.0
 70
   128
 71
   -35
 72
   -38
 73
   -22
  0
VERTEX
  5
11E3
330
11A2
100
AcDbEntity
  8
1660.241
100
AcDbFaceRecord
 10
0.0
 20
0.0
 30
0.0
 70
   128
 71
   -32
 72
   -29
 73
   -37
  0
VERTEX
  5
11E4
330
11A2
100
AcDbEntity
  8
1660.241
100
AcDbFaceRecord
 10
0.0
 20
0.0
 30
0.0
 70
   128
 71
    -4
 72
   -39
 73
    -2
  0
VERTEX
  5
11E5
330
11A2
100
AcDbEntity
  8
1660.241
100
AcDbFaceRecord
 10
0.0
 20
0.0
 30
0.0
 70
   128
 71
   -29
 72
   -31
 73
   -38
  0
VERTEX
  5
11E6
330
11A2
100
AcDbEntity
  8
1660.241
100
AcDbFaceRecord
 10
0.0
 20
0.0
 30
0.0
 70
   128
 71
     1
 72
    -2
 73
   -41
  0
VERTEX
  5
11E7
330
11A2
100
AcDbEntity
  8
1660.241
100
AcDbFaceRecord
 10
0.0
 20
0.0
 30
0.0
 70
   128
 71
   -43
 72
   -42
 73
   -36
  0
VERTEX
  5
11E8
330
11A2
100
AcDbEntity
  8
1660.241
100
AcDbFaceRecord
 10
0.0
 20
0.0
 30
0.0
 70
   128
 71
     2
 72
     3
 73
    -4
  0
VERTEX
  5
11E9
330
11A2
100
AcDbEntity
  8
1660.241
100
AcDbFaceRecord
 10
0.0
 20
0.0
 30
0.0
 70
   128
 71
   -41
 72
   -39
 73
   -30
  0
VERTEX
  5
11EA
330
11A2
100
AcDbEntity
  8
1660.241
100
AcDbFaceRecord
 10
0.0
 20
0.0
 30
0.0
 70
   128
 71
   -38
 72
    20
 73
   -21
  0
VERTEX
  5
11EB
330
11A2
100
AcDbEntity
  8
1660.241
100
AcDbFaceRecord
 10
0.0
 20
0.0
 30
0.0
 70
   128
 71
     4
 72
    -5
 73
   -39
  0
VERTEX
  5
11EC
330
11A2
100
AcDbEntity
  8
1660.241
100
AcDbFaceRecord
 10
0.0
 20
0.0
 30
0.0
 70
   128
 71
     6
 72
    -7
 73
   -42
  0
VERTEX
  5
11ED
330
11A2
100
AcDbEntity
  8
1660.241
100
AcDbFaceRecord
 10
0.0
 20
0.0
 30
0.0
 70
   128
 71
    23
 72
   -24
 73
   -35
  0
VERTEX
  5
11EE
330
11A2
100
AcDbEntity
  8
1660.241
100
AcDbFaceRecord
 10
0.0
 20
0.0
 30
0.0
 70
   128
 71
     8
 72
    -9
 73
   -36
  0
VERTEX
  5
11EF
330
11A2
100
AcDbEntity
  8
1660.241
100
AcDbFaceRecord
 10
0.0
 20
0.0
 30
0.0
 70
   128
 71
   -41
 72
    27
 73
   -28
  0
VERTEX
  5
11F0
330
11A2
100
AcDbEntity
  8
1660.241
100
AcDbFaceRecord
 10
0.0
 20
0.0
 30
0.0
 70
   128
 71
   -14
 72
   -34
 73
    13
  0
VERTEX
  5
11F1
330
11A2
100
AcDbEntity
  8
1660.241
100
AcDbFaceRecord
 10
0.0
 20
0.0
 30
0.0
 70
   128
 71
   -36
 72
   -42
 73
    -8
  0
VERTEX
  5
11F2
330
11A2
100
AcDbEntity
  8
1660.241
100
AcDbFaceRecord
 10
0.0
 20
0.0
 30
0.0
 70
   128
 71
   -19
 72
   -31
 73
   -33
  0
VERTEX
  5
11F3
330
11A2
100
AcDbEntity
  8
1660.241
100
AcDbFaceRecord
 10
0.0
 20
0.0
 30
0.0
 70
   128
 71
   -36
 72
     9
 73
   -10
  0
VERTEX
  5
11F4
330
11A2
100
AcDbEntity
  8
1660.241
100
AcDbFaceRecord
 10
0.0
 20
0.0
 30
0.0
 70
   128
 71
   -37
 72
   -12
 73
   -32
  0
VERTEX
  5
11F5
330
11A2
100
AcDbEntity
  8
1660.241
100
AcDbFaceRecord
 10
0.0
 20
0.0
 30
0.0
 70
   128
 71
    14
 72
    15
 73
   -34
  0
VERTEX
  5
11F6
330
11A2
100
AcDbEntity
  8
1660.241
100
AcDbFaceRecord
 10
0.0
 20
0.0
 30
0.0
 70
   128
 71
   -35
 72
   -43
 73
   -29
  0
VERTEX
  5
11F7
330
11A2
100
AcDbEntity
  8
1660.241
100
AcDbFaceRecord
 10
0.0
 20
0.0
 30
0.0
 70
   128
 71
    12
 72
   -13
 73
   -32
  0
VERTEX
  5
11F8
330
11A2
100
AcDbEntity
  8
1660.241
100
AcDbFaceRecord
 10
0.0
 20
0.0
 30
0.0
 70
   128
 71
   -40
 72
    24
 73
   -25
  0
VERTEX
  5
11F9
330
11A2
100
AcDbEntity
  8
1660.241
100
AcDbFaceRecord
 10
0.0
 20
0.0
 30
0.0
 70
   128
 71
   -20
 72
   -38
 73
   -31
  0
VERTEX
  5
11FA
330
11A2
100
AcDbEntity
  8
1660.241
100
AcDbFaceRecord
 10
0.0
 20
0.0
 30
0.0
 70
   128
 71
   -16
 72
   -32
 73
    34
  0
VERTEX
  5
11FB
330
11A2
100
AcDbEntity
  8
1660.241
100
AcDbFaceRecord
 10
0.0
 20
0.0
 30
0.0
 70
   128
 71
   -35
 72
   -40
 73
   -30
  0
VERTEX
  5
11FC
330
11A2
100
AcDbEntity
  8
1660.241
100
AcDbFaceRecord
 10
0.0
 20
0.0
 30
0.0
 70
   128
 71
   -27
 72
   -41
 73
   -40
  0
VERTEX
  5
11FD
330
11A2
100
AcDbEntity
  8
1660.241
100
AcDbFaceRecord
 10
0.0
 20
0.0
 30
0.0
 70
   128
 71
   -31
 72
   -32
 73
   -16
  0
VERTEX
  5
11FE
330
11A2
100
AcDbEntity
  8
1660.241
100
AcDbFaceRecord
 10
0.0
 20
0.0
 30
0.0
 70
   128
 71
   -12
 72
   -37
 73
    11
  0
VERTEX
  5
11FF
330
11A2
100
AcDbEntity
  8
1660.241
100
AcDbFaceRecord
 10
0.0
 20
0.0
 30
0.0
 70
   128
 71
   -36
 72
   -10
 73
   -37
  0
VERTEX
  5
1200
330
11A2
100
AcDbEntity
  8
1660.241
100
AcDbFaceRecord
 10
0.0
 20
0.0
 30
0.0
 70
   128
 71
   -39
 72
   -41
 73
    -2
  0
VERTEX
  5
1201
330
11A2
100
AcDbEntity
  8
1660.241
100
AcDbFaceRecord
 10
0.0
 20
0.0
 30
0.0
 70
   128
 71
   -39
 72
     5
 73
    -6
  0
VERTEX
  5
1202
330
11A2
100
AcDbEntity
  8
1660.241
100
AcDbFaceRecord
 10
0.0
 20
0.0
 30
0.0
 70
   128
 71
   -42
 72
   -39
 73
    -6
  0
VERTEX
  5
1203
330
11A2
100
AcDbEntity
  8
1660.241
100
AcDbFaceRecord
 10
0.0
 20
0.0
 30
0.0
 70
   128
 71
   -27
 72
   -40
 73
    26
  0
SEQEND
  5
1204
330
11A2
100
AcDbEntity
  8
1660.241
  0
POLYLINE
  5
1205
330
8DA
100
AcDbEntity
  8
1660.241
100
AcDbPolyFaceMesh
 66
     1
 10
0.0
 20
0.0
 30
0.0
 70
    64
 71
    48
 72
    44
1001
REVIT
1002
{
1070
     4
1000
6414
1002
}
1002
{
1070
     2
1000
-2001160
1002
}
  0
VERTEX
  5
1206
330
1205
100
AcDbEntity
  8
1660.241
100
AcDbVertex
100
AcDbPolyFaceMeshVertex
 10
0.000000000000058
 20
-1.698450151830736
 30
5.782842636108453
 70
   192
  0
VERTEX
  5
1207
330
1205
100
AcDbEntity
  8
1660.241
100
AcDbVertex
100
AcDbPolyFaceMeshVertex
 10
-0.1035276129844266
 20
-1.708087686449114
 30
5.773204922676141
 70
   192
  0
VERTEX
  5
1208
330
1205
100
AcDbEntity
  8
1660.241
100
AcDbVertex
100
AcDbPolyFaceMeshVertex
 10
-0.200000010431059
 20
-1.736343864351336
 30
5.744949102401788
 70
   192
  0
VERTEX
  5
1209
330
1205
100
AcDbEntity
  8
1660.241
100
AcDbVertex
100
AcDbPolyFaceMeshVertex
 10
-0.2828427180650311
 20
-1.781292859464709
 30
5.699999928474481
 70
   192
  0
VERTEX
  5
120A
330
1205
100
AcDbEntity
  8
1660.241
100
AcDbVertex
100
AcDbPolyFaceMeshVertex
 10
-0.3464101552965718
 20
-1.839871410280291
 30
5.641421198844964
 70
   192
  0
VERTEX
  5
120B
330
1205
100
AcDbEntity
  8
1660.241
100
AcDbVertex
100
AcDbPolyFaceMeshVertex
 10
-0.3863703310492116
 20
-1.908087674528185
 30
5.573205113411004
 70
   192
  0
VERTEX
  5
120C
330
1205
100
AcDbEntity
  8
1660.241
100
AcDbVertex
100
AcDbPolyFaceMeshVertex
 10
-0.4000000208618718
 20
-1.98129284754378
 30
5.500000119209344
 70
   192
  0
VERTEX
  5
120D
330
1205
100
AcDbEntity
  8
1660.241
100
AcDbVertex
100
AcDbPolyFaceMeshVertex
 10
-0.3863703310492116
 20
-2.05449784174544
 30
5.426794767379815
 70
   192
  0
VERTEX
  5
120E
330
1205
100
AcDbEntity
  8
1660.241
100
AcDbVertex
100
AcDbPolyFaceMeshVertex
 10
-0.3464101552965718
 20
-2.122714105993334
 30
5.358578681945855
 70
   192
  0
VERTEX
  5
120F
330
1205
100
AcDbEntity
  8
1660.241
100
AcDbVertex
100
AcDbPolyFaceMeshVertex
 10
-0.2828427180650311
 20
-2.18129283562285
 30
5.299999952316339
 70
   192
  0
VERTEX
  5
1210
330
1205
100
AcDbEntity
  8
1660.241
100
AcDbVertex
100
AcDbPolyFaceMeshVertex
 10
-0.200000010431059
 20
-2.226241830736223
 30
5.2550511360169
 70
   192
  0
VERTEX
  5
1211
330
1205
100
AcDbEntity
  8
1660.241
100
AcDbVertex
100
AcDbPolyFaceMeshVertex
 10
-0.1035276129844266
 20
-2.254497829824511
 30
5.226794958114679
 70
   192
  0
VERTEX
  5
1212
330
1205
100
AcDbEntity
  8
1660.241
100
AcDbVertex
100
AcDbPolyFaceMeshVertex
 10
0.0000000000000606
 20
-2.264135543256823
 30
5.217157244682367
 70
   192
  0
VERTEX
  5
1213
330
1205
100
AcDbEntity
  8
1660.241
100
AcDbVertex
100
AcDbPolyFaceMeshVertex
 10
0.1035276129839342
 20
-2.254497829824511
 30
5.226794958114679
 70
   192
  0
VERTEX
  5
1214
330
1205
100
AcDbEntity
  8
1660.241
100
AcDbVertex
100
AcDbPolyFaceMeshVertex
 10
0.2000000104305666
 20
-2.226241830736223
 30
5.2550511360169
 70
   192
  0
VERTEX
  5
1215
330
1205
100
AcDbEntity
  8
1660.241
100
AcDbVertex
100
AcDbPolyFaceMeshVertex
 10
0.2828427180645388
 20
-2.18129283562285
 30
5.299999952316339
 70
   192
  0
VERTEX
  5
1216
330
1205
100
AcDbEntity
  8
1660.241
100
AcDbVertex
100
AcDbPolyFaceMeshVertex
 10
0.3464101552960794
 20
-2.122714105993334
 30
5.358578681945855
 70
   192
  0
VERTEX
  5
1217
330
1205
100
AcDbEntity
  8
1660.241
100
AcDbVertex
100
AcDbPolyFaceMeshVertex
 10
0.3863703310487192
 20
-2.05449784174544
 30
5.426794767379815
 70
   192
  0
VERTEX
  5
1218
330
1205
100
AcDbEntity
  8
1660.241
100
AcDbVertex
100
AcDbPolyFaceMeshVertex
 10
0.4000000208613795
 20
-1.98129284754378
 30
5.500000119209344
 70
   192
  0
VERTEX
  5
1219
330
1205
100
AcDbEntity
  8
1660.241
100
AcDbVertex
100
AcDbPolyFaceMeshVertex
 10
0.3863703310487192
 20
-1.908087674528185
 30
5.573205113411004
 70
   192
  0
VERTEX
  5
121A
330
1205
100
AcDbEntity
  8
1660.241
100
AcDbVertex
100
AcDbPolyFaceMeshVertex
 10
0.3464101552960794
 20
-1.839871410280291
 30
5.641421198844964
 70
   192
  0
VERTEX
  5
121B
330
1205
100
AcDbEntity
  8
1660.241
100
AcDbVertex
100
AcDbPolyFaceMeshVertex
 10
0.2828427180645388
 20
-1.781292859464709
 30
5.699999928474481
 70
   192
  0
VERTEX
  5
121C
330
1205
100
AcDbEntity
  8
1660.241
100
AcDbVertex
100
AcDbPolyFaceMeshVertex
 10
0.2000000104305666
 20
-1.736343864351336
 30
5.744949102401788
 70
   192
  0
VERTEX
  5
121D
330
1205
100
AcDbEntity
  8
1660.241
100
AcDbVertex
100
AcDbPolyFaceMeshVertex
 10
0.1035276129839342
 20
-1.708087686449114
 30
5.773204922676141
 70
   192
  0
VERTEX
  5
121E
330
1205
100
AcDbEntity
  8
1660.241
100
AcDbVertex
100
AcDbPolyFaceMeshVertex
 10
0.0000000000000613
 20
-1.804516140371386
 30
5.676776647567804
 70
   192
  0
VERTEX
  5
121F
330
1205
100
AcDbEntity
  8
1660.241
100
AcDbVertex
100
AcDbPolyFaceMeshVertex
 10
0.0647047609088343
 20
-1.810539666563097
 30
5.670753121376092
 70
   192
  0
VERTEX
  5
1220
330
1205
100
AcDbEntity
  8
1660.241
100
AcDbVertex
100
AcDbPolyFaceMeshVertex
 10
0.125000003725044
 20
-1.828199688345019
 30
5.653093099594171
 70
   192
  0
VERTEX
  5
1221
330
1205
100
AcDbEntity
  8
1660.241
100
AcDbVertex
100
AcDbPolyFaceMeshVertex
 10
0.1767766959962767
 20
-1.856292787939135
 30
5.625000000000055
 70
   192
  0
VERTEX
  5
1222
330
1205
100
AcDbEntity
  8
1660.241
100
AcDbVertex
100
AcDbPolyFaceMeshVertex
 10
0.2165063470599573
 20
-1.892904404550616
 30
5.58838820457464
 70
   192
  0
VERTEX
  5
1223
330
1205
100
AcDbEntity
  8
1660.241
100
AcDbVertex
100
AcDbPolyFaceMeshVertex
 10
0.2414814457294863
 20
-1.935539726167742
 30
5.545753240585382
 70
   192
  0
VERTEX
  5
1224
330
1205
100
AcDbEntity
  8
1660.241
100
AcDbVertex
100
AcDbPolyFaceMeshVertex
 10
0.2500000074503343
 20
-1.98129284754378
 30
5.500000119209344
 70
   192
  0
VERTEX
  5
1225
330
1205
100
AcDbEntity
  8
1660.241
100
AcDbVertex
100
AcDbPolyFaceMeshVertex
 10
0.2414814457294863
 20
-2.027045968919817
 30
5.454246997833307
 70
   192
  0
VERTEX
  5
1226
330
1205
100
AcDbEntity
  8
1660.241
100
AcDbVertex
100
AcDbPolyFaceMeshVertex
 10
0.2165063470599573
 20
-2.06968111172301
 30
5.41161167621618
 70
   192
  0
VERTEX
  5
1227
330
1205
100
AcDbEntity
  8
1660.241
100
AcDbVertex
100
AcDbPolyFaceMeshVertex
 10
0.1767766959962767
 20
-2.106292907148425
 30
5.374999880790765
 70
   192
  0
VERTEX
  5
1228
330
1205
100
AcDbEntity
  8
1660.241
100
AcDbVertex
100
AcDbPolyFaceMeshVertex
 10
0.125000003725044
 20
-2.13438600674254
 30
5.346906781196649
 70
   192
  0
VERTEX
  5
1229
330
1205
100
AcDbEntity
  8
1660.241
100
AcDbVertex
100
AcDbPolyFaceMeshVertex
 10
0.0647047609088343
 20
-2.152046028524462
 30
5.329246759414727
 70
   192
  0
VERTEX
  5
122A
330
1205
100
AcDbEntity
  8
1660.241
100
AcDbVertex
100
AcDbPolyFaceMeshVertex
 10
0.000000000000054
 20
-2.158069554716173
 30
5.323223233223016
 70
   192
  0
VERTEX
  5
122B
330
1205
100
AcDbEntity
  8
1660.241
100
AcDbVertex
100
AcDbPolyFaceMeshVertex
 10
-0.0647047609093267
 20
-2.152046028524462
 30
5.329246759414727
 70
   192
  0
VERTEX
  5
122C
330
1205
100
AcDbEntity
  8
1660.241
100
AcDbVertex
100
AcDbPolyFaceMeshVertex
 10
-0.1250000037255365
 20
-2.13438600674254
 30
5.346906781196649
 70
   192
  0
VERTEX
  5
122D
330
1205
100
AcDbEntity
  8
1660.241
100
AcDbVertex
100
AcDbPolyFaceMeshVertex
 10
-0.1767766959967691
 20
-2.106292907148425
 30
5.374999880790765
 70
   192
  0
VERTEX
  5
122E
330
1205
100
AcDbEntity
  8
1660.241
100
AcDbVertex
100
AcDbPolyFaceMeshVertex
 10
-0.2165063470604497
 20
-2.06968111172301
 30
5.41161167621618
 70
   192
  0
VERTEX
  5
122F
330
1205
100
AcDbEntity
  8
1660.241
100
AcDbVertex
100
AcDbPolyFaceMeshVertex
 10
-0.2414814457299787
 20
-2.027045968919817
 30
5.454246997833307
 70
   192
  0
VERTEX
  5
1230
330
1205
100
AcDbEntity
  8
1660.241
100
AcDbVertex
100
AcDbPolyFaceMeshVertex
 10
-0.2500000074508267
 20
-1.98129284754378
 30
5.500000119209344
 70
   192
  0
VERTEX
  5
1231
330
1205
100
AcDbEntity
  8
1660.241
100
AcDbVertex
100
AcDbPolyFaceMeshVertex
 10
-0.2414814457299787
 20
-1.935539726167742
 30
5.545753240585382
 70
   192
  0
VERTEX
  5
1232
330
1205
100
AcDbEntity
  8
1660.241
100
AcDbVertex
100
AcDbPolyFaceMeshVertex
 10
-0.2165063470604497
 20
-1.892904404550616
 30
5.58838820457464
 70
   192
  0
VERTEX
  5
1233
330
1205
100
AcDbEntity
  8
1660.241
100
AcDbVertex
100
AcDbPolyFaceMeshVertex
 10
-0.1767766959967691
 20
-1.856292787939135
 30
5.625000000000055
 70
   192
  0
VERTEX
  5
1234
330
1205
100
AcDbEntity
  8
1660.241
100
AcDbVertex
100
AcDbPolyFaceMeshVertex
 10
-0.1250000037255365
 20
-1.828199688345019
 30
5.653093099594171
 70
   192
  0
VERTEX
  5
1235
330
1205
100
AcDbEntity
  8
1660.241
100
AcDbVertex
100
AcDbPolyFaceMeshVertex
 10
-0.0647047609093267
 20
-1.810539666563097
 30
5.670753121376092
 70
   192
  0
VERTEX
  5
1236
330
1205
100
AcDbEntity
  8
1660.241
100
AcDbFaceRecord
 10
0.0
 20
0.0
 30
0.0
 70
   128
 71
   -41
 72
     9
 73
   -10
 74
    40
  0
VERTEX
  5
1237
330
1205
100
AcDbEntity
  8
1660.241
100
AcDbFaceRecord
 10
0.0
 20
0.0
 30
0.0
 70
   128
 71
    -9
 72
    41
 73
   -42
  0
VERTEX
  5
1238
330
1205
100
AcDbEntity
  8
1660.241
100
AcDbFaceRecord
 10
0.0
 20
0.0
 30
0.0
 70
   128
 71
    -8
 72
    42
 73
   -43
  0
VERTEX
  5
1239
330
1205
100
AcDbEntity
  8
1660.241
100
AcDbFaceRecord
 10
0.0
 20
0.0
 30
0.0
 70
   128
 71
   -42
 72
     8
 73
    -9
  0
VERTEX
  5
123A
330
1205
100
AcDbEntity
  8
1660.241
100
AcDbFaceRecord
 10
0.0
 20
0.0
 30
0.0
 70
   128
 71
    -8
 72
   -43
 73
     7
  0
VERTEX
  5
123B
330
1205
100
AcDbEntity
  8
1660.241
100
AcDbFaceRecord
 10
0.0
 20
0.0
 30
0.0
 70
   128
 71
   -38
 72
    11
 73
   -12
  0
VERTEX
  5
123C
330
1205
100
AcDbEntity
  8
1660.241
100
AcDbFaceRecord
 10
0.0
 20
0.0
 30
0.0
 70
   128
 71
    12
 72
   -13
 73
    37
 74
   -38
  0
VERTEX
  5
123D
330
1205
100
AcDbEntity
  8
1660.241
100
AcDbFaceRecord
 10
0.0
 20
0.0
 30
0.0
 70
   128
 71
    39
 72
   -40
 73
   -11
  0
VERTEX
  5
123E
330
1205
100
AcDbEntity
  8
1660.241
100
AcDbFaceRecord
 10
0.0
 20
0.0
 30
0.0
 70
   128
 71
    38
 72
   -39
 73
   -11
  0
VERTEX
  5
123F
330
1205
100
AcDbEntity
  8
1660.241
100
AcDbFaceRecord
 10
0.0
 20
0.0
 30
0.0
 70
   128
 71
   -11
 72
   -40
 73
    10
  0
VERTEX
  5
1240
330
1205
100
AcDbEntity
  8
1660.241
100
AcDbFaceRecord
 10
0.0
 20
0.0
 30
0.0
 70
   128
 71
    -7
 72
   -44
 73
     6
  0
VERTEX
  5
1241
330
1205
100
AcDbEntity
  8
1660.241
100
AcDbFaceRecord
 10
0.0
 20
0.0
 30
0.0
 70
   128
 71
   -44
 72
    -7
 73
    43
  0
VERTEX
  5
1242
330
1205
100
AcDbEntity
  8
1660.241
100
AcDbFaceRecord
 10
0.0
 20
0.0
 30
0.0
 70
   128
 71
    -6
 72
    44
 73
   -45
  0
VERTEX
  5
1243
330
1205
100
AcDbEntity
  8
1660.241
100
AcDbFaceRecord
 10
0.0
 20
0.0
 30
0.0
 70
   128
 71
     4
 72
    -5
 73
   -46
  0
VERTEX
  5
1244
330
1205
100
AcDbEntity
  8
1660.241
100
AcDbFaceRecord
 10
0.0
 20
0.0
 30
0.0
 70
   128
 71
   -45
 72
     5
 73
    -6
  0
VERTEX
  5
1245
330
1205
100
AcDbEntity
  8
1660.241
100
AcDbFaceRecord
 10
0.0
 20
0.0
 30
0.0
 70
   128
 71
   -46
 72
    -5
 73
    45
  0
VERTEX
  5
1246
330
1205
100
AcDbEntity
  8
1660.241
100
AcDbFaceRecord
 10
0.0
 20
0.0
 30
0.0
 70
   128
 71
    47
 72
   -48
 73
    -3
  0
VERTEX
  5
1247
330
1205
100
AcDbEntity
  8
1660.241
100
AcDbFaceRecord
 10
0.0
 20
0.0
 30
0.0
 70
   128
 71
   -47
 72
     3
 73
    -4
  0
VERTEX
  5
1248
330
1205
100
AcDbEntity
  8
1660.241
100
AcDbFaceRecord
 10
0.0
 20
0.0
 30
0.0
 70
   128
 71
   -48
 72
     2
 73
    -3
  0
VERTEX
  5
1249
330
1205
100
AcDbEntity
  8
1660.241
100
AcDbFaceRecord
 10
0.0
 20
0.0
 30
0.0
 70
   128
 71
    -2
 72
    48
 73
   -25
  0
VERTEX
  5
124A
330
1205
100
AcDbEntity
  8
1660.241
100
AcDbFaceRecord
 10
0.0
 20
0.0
 30
0.0
 70
   128
 71
    -2
 72
   -25
 73
     1
  0
VERTEX
  5
124B
330
1205
100
AcDbEntity
  8
1660.241
100
AcDbFaceRecord
 10
0.0
 20
0.0
 30
0.0
 70
   128
 71
   -47
 72
    -4
 73
    46
  0
VERTEX
  5
124C
330
1205
100
AcDbEntity
  8
1660.241
100
AcDbFaceRecord
 10
0.0
 20
0.0
 30
0.0
 70
   128
 71
   -36
 72
    13
 73
   -14
 74
    35
  0
VERTEX
  5
124D
330
1205
100
AcDbEntity
  8
1660.241
100
AcDbFaceRecord
 10
0.0
 20
0.0
 30
0.0
 70
   128
 71
   -35
 72
    14
 73
   -15
  0
VERTEX
  5
124E
330
1205
100
AcDbEntity
  8
1660.241
100
AcDbFaceRecord
 10
0.0
 20
0.0
 30
0.0
 70
   128
 71
    34
 72
   -35
 73
   -15
  0
VERTEX
  5
124F
330
1205
100
AcDbEntity
  8
1660.241
100
AcDbFaceRecord
 10
0.0
 20
0.0
 30
0.0
 70
   128
 71
    15
 72
   -16
 73
   -34
  0
VERTEX
  5
1250
330
1205
100
AcDbEntity
  8
1660.241
100
AcDbFaceRecord
 10
0.0
 20
0.0
 30
0.0
 70
   128
 71
    16
 72
   -17
 73
    33
 74
   -34
  0
VERTEX
  5
1251
330
1205
100
AcDbEntity
  8
1660.241
100
AcDbFaceRecord
 10
0.0
 20
0.0
 30
0.0
 70
   128
 71
   -33
 72
   -17
 73
    32
  0
VERTEX
  5
1252
330
1205
100
AcDbEntity
  8
1660.241
100
AcDbFaceRecord
 10
0.0
 20
0.0
 30
0.0
 70
   128
 71
   -32
 72
   -18
 73
    31
  0
VERTEX
  5
1253
330
1205
100
AcDbEntity
  8
1660.241
100
AcDbFaceRecord
 10
0.0
 20
0.0
 30
0.0
 70
   128
 71
   -18
 72
   -32
 73
    17
  0
VERTEX
  5
1254
330
1205
100
AcDbEntity
  8
1660.241
100
AcDbFaceRecord
 10
0.0
 20
0.0
 30
0.0
 70
   128
 71
   -31
 72
    18
 73
   -19
  0
VERTEX
  5
1255
330
1205
100
AcDbEntity
  8
1660.241
100
AcDbFaceRecord
 10
0.0
 20
0.0
 30
0.0
 70
   128
 71
   -23
 72
   -27
 73
    22
  0
VERTEX
  5
1256
330
1205
100
AcDbEntity
  8
1660.241
100
AcDbFaceRecord
 10
0.0
 20
0.0
 30
0.0
 70
   128
 71
    26
 72
   -27
 73
   -24
  0
VERTEX
  5
1257
330
1205
100
AcDbEntity
  8
1660.241
100
AcDbFaceRecord
 10
0.0
 20
0.0
 30
0.0
 70
   128
 71
   -26
 72
    24
 73
    -1
  0
VERTEX
  5
1258
330
1205
100
AcDbEntity
  8
1660.241
100
AcDbFaceRecord
 10
0.0
 20
0.0
 30
0.0
 70
   128
 71
   -24
 72
   -27
 73
    23
  0
VERTEX
  5
1259
330
1205
100
AcDbEntity
  8
1660.241
100
AcDbFaceRecord
 10
0.0
 20
0.0
 30
0.0
 70
   128
 71
    27
 72
   -28
 73
   -22
  0
VERTEX
  5
125A
330
1205
100
AcDbEntity
  8
1660.241
100
AcDbFaceRecord
 10
0.0
 20
0.0
 30
0.0
 70
   128
 71
    -1
 72
    25
 73
   -26
  0
VERTEX
  5
125B
330
1205
100
AcDbEntity
  8
1660.241
100
AcDbFaceRecord
 10
0.0
 20
0.0
 30
0.0
 70
   128
 71
   -30
 72
    19
 73
   -20
  0
VERTEX
  5
125C
330
1205
100
AcDbEntity
  8
1660.241
100
AcDbFaceRecord
 10
0.0
 20
0.0
 30
0.0
 70
   128
 71
   -19
 72
    30
 73
   -31
  0
VERTEX
  5
125D
330
1205
100
AcDbEntity
  8
1660.241
100
AcDbFaceRecord
 10
0.0
 20
0.0
 30
0.0
 70
   128
 71
   -30
 72
   -20
 73
    29
  0
VERTEX
  5
125E
330
1205
100
AcDbEntity
  8
1660.241
100
AcDbFaceRecord
 10
0.0
 20
0.0
 30
0.0
 70
   128
 71
    21
 72
   -22
 73
   -28
  0
VERTEX
  5
125F
330
1205
100
AcDbEntity
  8
1660.241
100
AcDbFaceRecord
 10
0.0
 20
0.0
 30
0.0
 70
   128
 71
   -21
 72
   -29
 73
    20
  0
VERTEX
  5
1260
330
1205
100
AcDbEntity
  8
1660.241
100
AcDbFaceRecord
 10
0.0
 20
0.0
 30
0.0
 70
   128
 71
   -21
 72
    28
 73
   -29
  0
VERTEX
  5
1261
330
1205
100
AcDbEntity
  8
1660.241
100
AcDbFaceRecord
 10
0.0
 20
0.0
 30
0.0
 70
   128
 71
    36
 72
   -37
 73
   -13
  0
SEQEND
  5
1262
330
1205
100
AcDbEntity
  8
1660.241
  0
POLYLINE
  5
1263
330
8DA
100
AcDbEntity
  8
1660.241
100
AcDbPolyFaceMesh
 66
     1
 10
0.0
 20
0.0
 30
0.0
 70
    64
 71
    26
 72
    12
1001
REVIT
1002
{
1070
     4
1000
6414
1002
}
1002
{
1070
     2
1000
-2001160
1002
}
  0
VERTEX
  5
1264
330
1263
100
AcDbEntity
  8
1660.241
100
AcDbVertex
100
AcDbPolyFaceMeshVertex
 10
0.0000000000000299
 20
0.2750000171365099
 30
2.815280020237024
 70
   192
  0
VERTEX
  5
1265
330
1263
100
AcDbEntity
  8
1660.241
100
AcDbVertex
100
AcDbPolyFaceMeshVertex
 10
0.1035276129839342
 20
0.2613703273238497
 30
2.815280020237024
 70
   192
  0
VERTEX
  5
1266
330
1263
100
AcDbEntity
  8
1660.241
100
AcDbVertex
100
AcDbPolyFaceMeshVertex
 10
0.2000000104305666
 20
0.2214101515712099
 30
2.815280020237024
 70
   192
  0
VERTEX
  5
1267
330
1263
100
AcDbEntity
  8
1660.241
100
AcDbVertex
100
AcDbPolyFaceMeshVertex
 10
0.2828427180645388
 20
0.1578427143396692
 30
2.815280020237024
 70
   192
  0
VERTEX
  5
1268
330
1263
100
AcDbEntity
  8
1660.241
100
AcDbVertex
100
AcDbPolyFaceMeshVertex
 10
0.3464101552960794
 20
0.0750000067056971
 30
2.815280020237024
 70
   192
  0
VERTEX
  5
1269
330
1263
100
AcDbEntity
  8
1660.241
100
AcDbVertex
100
AcDbPolyFaceMeshVertex
 10
0.3863703310487192
 20
-0.0214723907409353
 30
2.815280020237024
 70
   192
  0
VERTEX
  5
126A
330
1263
100
AcDbEntity
  8
1660.241
100
AcDbVertex
100
AcDbPolyFaceMeshVertex
 10
0.4000000208613795
 20
-0.1250000037254808
 30
2.815280020237024
 70
   192
  0
VERTEX
  5
126B
330
1263
100
AcDbEntity
  8
1660.241
100
AcDbVertex
100
AcDbPolyFaceMeshVertex
 10
0.3863703310487192
 20
-0.2285276167092962
 30
2.815280020237024
 70
   192
  0
VERTEX
  5
126C
330
1263
100
AcDbEntity
  8
1660.241
100
AcDbVertex
100
AcDbPolyFaceMeshVertex
 10
0.3464101552960794
 20
-0.3250000141559286
 30
2.815280020237024
 70
   192
  0
VERTEX
  5
126D
330
1263
100
AcDbEntity
  8
1660.241
100
AcDbVertex
100
AcDbPolyFaceMeshVertex
 10
0.2828427180645388
 20
-0.4078427217899008
 30
2.815280020237024
 70
   192
  0
VERTEX
  5
126E
330
1263
100
AcDbEntity
  8
1660.241
100
AcDbVertex
100
AcDbPolyFaceMeshVertex
 10
0.2000000104305666
 20
-0.4714101590214415
 30
2.815280020237024
 70
   192
  0
VERTEX
  5
126F
330
1263
100
AcDbEntity
  8
1660.241
100
AcDbVertex
100
AcDbPolyFaceMeshVertex
 10
0.1035276129839342
 20
-0.5113703347740813
 30
2.815280020237024
 70
   192
  0
VERTEX
  5
1270
330
1263
100
AcDbEntity
  8
1660.241
100
AcDbVertex
100
AcDbPolyFaceMeshVertex
 10
0.0000000000000338
 20
-0.5250000245867415
 30
2.815280020237024
 70
   192
  0
VERTEX
  5
1271
330
1263
100
AcDbEntity
  8
1660.241
100
AcDbVertex
100
AcDbPolyFaceMeshVertex
 10
0.0000000000000086
 20
-0.5250000245867415
 30
0.3000000044704041
 70
   192
  0
VERTEX
  5
1272
330
1263
100
AcDbEntity
  8
1660.241
100
AcDbVertex
100
AcDbPolyFaceMeshVertex
 10
0.1035276129839342
 20
-0.5113703347740813
 30
0.3000000044704041
 70
   192
  0
VERTEX
  5
1273
330
1263
100
AcDbEntity
  8
1660.241
100
AcDbVertex
100
AcDbPolyFaceMeshVertex
 10
0.2000000104305666
 20
-0.4714101590214415
 30
0.3000000044704041
 70
   192
  0
VERTEX
  5
1274
330
1263
100
AcDbEntity
  8
1660.241
100
AcDbVertex
100
AcDbPolyFaceMeshVertex
 10
0.2828427180645388
 20
-0.4078427217899008
 30
0.3000000044704041
 70
   192
  0
VERTEX
  5
1275
330
1263
100
AcDbEntity
  8
1660.241
100
AcDbVertex
100
AcDbPolyFaceMeshVertex
 10
0.3464101552960794
 20
-0.3250000141559286
 30
0.3000000044704041
 70
   192
  0
VERTEX
  5
1276
330
1263
100
AcDbEntity
  8
1660.241
100
AcDbVertex
100
AcDbPolyFaceMeshVertex
 10
0.3863703310487192
 20
-0.2285276167092962
 30
0.3000000044704041
 70
   192
  0
VERTEX
  5
1277
330
1263
100
AcDbEntity
  8
1660.241
100
AcDbVertex
100
AcDbPolyFaceMeshVertex
 10
0.4000000208613795
 20
-0.1250000037254471
 30
0.3000000044704041
 70
   192
  0
VERTEX
  5
1278
330
1263
100
AcDbEntity
  8
1660.241
100
AcDbVertex
100
AcDbPolyFaceMeshVertex
 10
0.3863703310487192
 20
-0.0214723907409353
 30
0.3000000044704041
 70
   192
  0
VERTEX
  5
1279
330
1263
100
AcDbEntity
  8
1660.241
100
AcDbVertex
100
AcDbPolyFaceMeshVertex
 10
0.3464101552960794
 20
0.0750000067056971
 30
0.3000000044704041
 70
   192
  0
VERTEX
  5
127A
330
1263
100
AcDbEntity
  8
1660.241
100
AcDbVertex
100
AcDbPolyFaceMeshVertex
 10
0.2828427180645388
 20
0.1578427143396692
 30
0.3000000044704041
 70
   192
  0
VERTEX
  5
127B
330
1263
100
AcDbEntity
  8
1660.241
100
AcDbVertex
100
AcDbPolyFaceMeshVertex
 10
0.2000000104305666
 20
0.2214101515712099
 30
0.3000000044704041
 70
   192
  0
VERTEX
  5
127C
330
1263
100
AcDbEntity
  8
1660.241
100
AcDbVertex
100
AcDbPolyFaceMeshVertex
 10
0.1035276129839342
 20
0.2613703273238497
 30
0.3000000044704041
 70
   192
  0
VERTEX
  5
127D
330
1263
100
AcDbEntity
  8
1660.241
100
AcDbVertex
100
AcDbPolyFaceMeshVertex
 10
0.0000000000000023
 20
0.2750000171365099
 30
0.3000000044704041
 70
   192
  0
VERTEX
  5
127E
330
1263
100
AcDbEntity
  8
1660.241
100
AcDbFaceRecord
 10
0.0
 20
0.0
 30
0.0
 70
   128
 71
    26
 72
     1
 73
    -2
 74
    25
  0
VERTEX
  5
127F
330
1263
100
AcDbEntity
  8
1660.241
100
AcDbFaceRecord
 10
0.0
 20
0.0
 30
0.0
 70
   128
 71
   -25
 72
     2
 73
    -3
 74
    24
  0
VERTEX
  5
1280
330
1263
100
AcDbEntity
  8
1660.241
100
AcDbFaceRecord
 10
0.0
 20
0.0
 30
0.0
 70
   128
 71
   -23
 72
     4
 73
    -5
 74
    22
  0
VERTEX
  5
1281
330
1263
100
AcDbEntity
  8
1660.241
100
AcDbFaceRecord
 10
0.0
 20
0.0
 30
0.0
 70
   128
 71
   -24
 72
     3
 73
    -4
 74
    23
  0
VERTEX
  5
1282
330
1263
100
AcDbEntity
  8
1660.241
100
AcDbFaceRecord
 10
0.0
 20
0.0
 30
0.0
 70
   128
 71
   -22
 72
     5
 73
    -6
 74
    21
  0
VERTEX
  5
1283
330
1263
100
AcDbEntity
  8
1660.241
100
AcDbFaceRecord
 10
0.0
 20
0.0
 30
0.0
 70
   128
 71
    -7
 72
    20
 73
   -21
 74
     6
  0
VERTEX
  5
1284
330
1263
100
AcDbEntity
  8
1660.241
100
AcDbFaceRecord
 10
0.0
 20
0.0
 30
0.0
 70
   128
 71
   -19
 72
     8
 73
    -9
 74
    18
  0
VERTEX
  5
1285
330
1263
100
AcDbEntity
  8
1660.241
100
AcDbFaceRecord
 10
0.0
 20
0.0
 30
0.0
 70
   128
 71
   -18
 72
     9
 73
   -10
 74
    17
  0
VERTEX
  5
1286
330
1263
100
AcDbEntity
  8
1660.241
100
AcDbFaceRecord
 10
0.0
 20
0.0
 30
0.0
 70
   128
 71
   -16
 72
    11
 73
   -12
 74
    15
  0
VERTEX
  5
1287
330
1263
100
AcDbEntity
  8
1660.241
100
AcDbFaceRecord
 10
0.0
 20
0.0
 30
0.0
 70
   128
 71
   -17
 72
    10
 73
   -11
 74
    16
  0
VERTEX
  5
1288
330
1263
100
AcDbEntity
  8
1660.241
100
AcDbFaceRecord
 10
0.0
 20
0.0
 30
0.0
 70
   128
 71
   -15
 72
    12
 73
    13
 74
    14
  0
VERTEX
  5
1289
330
1263
100
AcDbEntity
  8
1660.241
100
AcDbFaceRecord
 10
0.0
 20
0.0
 30
0.0
 70
   128
 71
    -8
 72
    19
 73
   -20
 74
     7
  0
SEQEND
  5
128A
330
1263
100
AcDbEntity
  8
1660.241
  0
POLYLINE
  5
128B
330
8DA
100
AcDbEntity
  8
1660.241
100
AcDbPolyFaceMesh
 66
     1
 10
0.0
 20
0.0
 30
0.0
 70
    64
 71
    26
 72
    12
1001
REVIT
1002
{
1070
     4
1000
6414
1002
}
1002
{
1070
     2
1000
-2001160
1002
}
  0
VERTEX
  5
128C
330
128B
100
AcDbEntity
  8
1660.241
100
AcDbVertex
100
AcDbPolyFaceMeshVertex
 10
0.0000000000000312
 20
-0.5250000245867415
 30
2.815280020237024
 70
   192
  0
VERTEX
  5
128D
330
128B
100
AcDbEntity
  8
1660.241
100
AcDbVertex
100
AcDbPolyFaceMeshVertex
 10
-0.1035276129844266
 20
-0.5113703347740813
 30
2.815280020237024
 70
   192
  0
VERTEX
  5
128E
330
128B
100
AcDbEntity
  8
1660.241
100
AcDbVertex
100
AcDbPolyFaceMeshVertex
 10
-0.200000010431059
 20
-0.4714101590214415
 30
2.815280020237024
 70
   192
  0
VERTEX
  5
128F
330
128B
100
AcDbEntity
  8
1660.241
100
AcDbVertex
100
AcDbPolyFaceMeshVertex
 10
-0.2828427180650311
 20
-0.4078427217899008
 30
2.815280020237024
 70
   192
  0
VERTEX
  5
1290
330
128B
100
AcDbEntity
  8
1660.241
100
AcDbVertex
100
AcDbPolyFaceMeshVertex
 10
-0.3464101552965718
 20
-0.3250000141559286
 30
2.815280020237024
 70
   192
  0
VERTEX
  5
1291
330
128B
100
AcDbEntity
  8
1660.241
100
AcDbVertex
100
AcDbPolyFaceMeshVertex
 10
-0.3863703310492116
 20
-0.2285276167092962
 30
2.815280020237024
 70
   192
  0
VERTEX
  5
1292
330
128B
100
AcDbEntity
  8
1660.241
100
AcDbVertex
100
AcDbPolyFaceMeshVertex
 10
-0.4000000208618718
 20
-0.1250000037254861
 30
2.815280020237024
 70
   192
  0
VERTEX
  5
1293
330
128B
100
AcDbEntity
  8
1660.241
100
AcDbVertex
100
AcDbPolyFaceMeshVertex
 10
-0.3863703310492116
 20
-0.0214723907409353
 30
2.815280020237024
 70
   192
  0
VERTEX
  5
1294
330
128B
100
AcDbEntity
  8
1660.241
100
AcDbVertex
100
AcDbPolyFaceMeshVertex
 10
-0.3464101552965718
 20
0.0750000067056971
 30
2.815280020237024
 70
   192
  0
VERTEX
  5
1295
330
128B
100
AcDbEntity
  8
1660.241
100
AcDbVertex
100
AcDbPolyFaceMeshVertex
 10
-0.2828427180650311
 20
0.1578427143396692
 30
2.815280020237024
 70
   192
  0
VERTEX
  5
1296
330
128B
100
AcDbEntity
  8
1660.241
100
AcDbVertex
100
AcDbPolyFaceMeshVertex
 10
-0.200000010431059
 20
0.2214101515712099
 30
2.815280020237024
 70
   192
  0
VERTEX
  5
1297
330
128B
100
AcDbEntity
  8
1660.241
100
AcDbVertex
100
AcDbPolyFaceMeshVertex
 10
-0.1035276129844266
 20
0.2613703273238497
 30
2.815280020237024
 70
   192
  0
VERTEX
  5
1298
330
128B
100
AcDbEntity
  8
1660.241
100
AcDbVertex
100
AcDbPolyFaceMeshVertex
 10
0.0000000000000301
 20
0.2750000171365099
 30
2.815280020237024
 70
   192
  0
VERTEX
  5
1299
330
128B
100
AcDbEntity
  8
1660.241
100
AcDbVertex
100
AcDbPolyFaceMeshVertex
 10
0.0000000000000021
 20
0.2750000171365099
 30
0.3000000044704041
 70
   192
  0
VERTEX
  5
129A
330
128B
100
AcDbEntity
  8
1660.241
100
AcDbVertex
100
AcDbPolyFaceMeshVertex
 10
-0.1035276129844266
 20
0.2613703273238497
 30
0.3000000044704041
 70
   192
  0
VERTEX
  5
129B
330
128B
100
AcDbEntity
  8
1660.241
100
AcDbVertex
100
AcDbPolyFaceMeshVertex
 10
-0.200000010431059
 20
0.2214101515712099
 30
0.3000000044704041
 70
   192
  0
VERTEX
  5
129C
330
128B
100
AcDbEntity
  8
1660.241
100
AcDbVertex
100
AcDbPolyFaceMeshVertex
 10
-0.2828427180650311
 20
0.1578427143396692
 30
0.3000000044704041
 70
   192
  0
VERTEX
  5
129D
330
128B
100
AcDbEntity
  8
1660.241
100
AcDbVertex
100
AcDbPolyFaceMeshVertex
 10
-0.3464101552965718
 20
0.0750000067056971
 30
0.3000000044704041
 70
   192
  0
VERTEX
  5
129E
330
128B
100
AcDbEntity
  8
1660.241
100
AcDbVertex
100
AcDbPolyFaceMeshVertex
 10
-0.3863703310492116
 20
-0.0214723907409353
 30
0.3000000044704041
 70
   192
  0
VERTEX
  5
129F
330
128B
100
AcDbEntity
  8
1660.241
100
AcDbVertex
100
AcDbPolyFaceMeshVertex
 10
-0.4000000208618718
 20
-0.1250000037254511
 30
0.3000000044704041
 70
   192
  0
VERTEX
  5
12A0
330
128B
100
AcDbEntity
  8
1660.241
100
AcDbVertex
100
AcDbPolyFaceMeshVertex
 10
-0.3863703310492116
 20
-0.2285276167092962
 30
0.3000000044704041
 70
   192
  0
VERTEX
  5
12A1
330
128B
100
AcDbEntity
  8
1660.241
100
AcDbVertex
100
AcDbPolyFaceMeshVertex
 10
-0.3464101552965718
 20
-0.3250000141559286
 30
0.3000000044704041
 70
   192
  0
VERTEX
  5
12A2
330
128B
100
AcDbEntity
  8
1660.241
100
AcDbVertex
100
AcDbPolyFaceMeshVertex
 10
-0.2828427180650311
 20
-0.4078427217899008
 30
0.3000000044704041
 70
   192
  0
VERTEX
  5
12A3
330
128B
100
AcDbEntity
  8
1660.241
100
AcDbVertex
100
AcDbPolyFaceMeshVertex
 10
-0.200000010431059
 20
-0.4714101590214415
 30
0.3000000044704041
 70
   192
  0
VERTEX
  5
12A4
330
128B
100
AcDbEntity
  8
1660.241
100
AcDbVertex
100
AcDbPolyFaceMeshVertex
 10
-0.1035276129844266
 20
-0.5113703347740813
 30
0.3000000044704041
 70
   192
  0
VERTEX
  5
12A5
330
128B
100
AcDbEntity
  8
1660.241
100
AcDbVertex
100
AcDbPolyFaceMeshVertex
 10
0.000000000000006
 20
-0.5250000245867415
 30
0.3000000044704041
 70
   192
  0
VERTEX
  5
12A6
330
128B
100
AcDbEntity
  8
1660.241
100
AcDbFaceRecord
 10
0.0
 20
0.0
 30
0.0
 70
   128
 71
    26
 72
     1
 73
    -2
 74
    25
  0
VERTEX
  5
12A7
330
128B
100
AcDbEntity
  8
1660.241
100
AcDbFaceRecord
 10
0.0
 20
0.0
 30
0.0
 70
   128
 71
   -25
 72
     2
 73
    -3
 74
    24
  0
VERTEX
  5
12A8
330
128B
100
AcDbEntity
  8
1660.241
100
AcDbFaceRecord
 10
0.0
 20
0.0
 30
0.0
 70
   128
 71
   -23
 72
     4
 73
    -5
 74
    22
  0
VERTEX
  5
12A9
330
128B
100
AcDbEntity
  8
1660.241
100
AcDbFaceRecord
 10
0.0
 20
0.0
 30
0.0
 70
   128
 71
   -24
 72
     3
 73
    -4
 74
    23
  0
VERTEX
  5
12AA
330
128B
100
AcDbEntity
  8
1660.241
100
AcDbFaceRecord
 10
0.0
 20
0.0
 30
0.0
 70
   128
 71
   -22
 72
     5
 73
    -6
 74
    21
  0
VERTEX
  5
12AB
330
128B
100
AcDbEntity
  8
1660.241
100
AcDbFaceRecord
 10
0.0
 20
0.0
 30
0.0
 70
   128
 71
    -7
 72
    20
 73
   -21
 74
     6
  0
VERTEX
  5
12AC
330
128B
100
AcDbEntity
  8
1660.241
100
AcDbFaceRecord
 10
0.0
 20
0.0
 30
0.0
 70
   128
 71
   -18
 72
     9
 73
   -10
 74
    17
  0
VERTEX
  5
12AD
330
128B
100
AcDbEntity
  8
1660.241
100
AcDbFaceRecord
 10
0.0
 20
0.0
 30
0.0
 70
   128
 71
   -19
 72
     8
 73
    -9
 74
    18
  0
VERTEX
  5
12AE
330
128B
100
AcDbEntity
  8
1660.241
100
AcDbFaceRecord
 10
0.0
 20
0.0
 30
0.0
 70
   128
 71
    12
 72
    13
 73
    14
 74
   -15
  0
VERTEX
  5
12AF
330
128B
100
AcDbEntity
  8
1660.241
100
AcDbFaceRecord
 10
0.0
 20
0.0
 30
0.0
 70
   128
 71
    11
 72
   -12
 73
    15
 74
   -16
  0
VERTEX
  5
12B0
330
128B
100
AcDbEntity
  8
1660.241
100
AcDbFaceRecord
 10
0.0
 20
0.0
 30
0.0
 70
   128
 71
   -17
 72
    10
 73
   -11
 74
    16
  0
VERTEX
  5
12B1
330
128B
100
AcDbEntity
  8
1660.241
100
AcDbFaceRecord
 10
0.0
 20
0.0
 30
0.0
 70
   128
 71
    -8
 72
    19
 73
   -20
 74
     7
  0
SEQEND
  5
12B2
330
128B
100
AcDbEntity
  8
1660.241
  0
POLYLINE
  5
12B3
330
8DA
100
AcDbEntity
  8
1660.241
100
AcDbPolyFaceMesh
 66
     1
 10
0.0
 20
0.0
 30
0.0
 70
    64
 71
    26
 72
    21
1001
REVIT
1002
{
1070
     4
1000
6414
1002
}
1002
{
1070
     2
1000
-2001160
1002
}
  0
VERTEX
  5
12B4
330
12B3
100
AcDbEntity
  8
1660.241
100
AcDbVertex
100
AcDbPolyFaceMeshVertex
 10
0.0000000000000475
 20
-0.9936291910706206
 30
3.946650981903131
 70
   192
  0
VERTEX
  5
12B5
330
12B3
100
AcDbEntity
  8
1660.241
100
AcDbVertex
100
AcDbPolyFaceMeshVertex
 10
0.1035276129839342
 20
-0.9839914776383086
 30
3.956288695335443
 70
   192
  0
VERTEX
  5
12B6
330
12B3
100
AcDbEntity
  8
1660.241
100
AcDbVertex
100
AcDbPolyFaceMeshVertex
 10
0.2000000104305666
 20
-0.955735389143054
 30
3.984544515609796
 70
   192
  0
VERTEX
  5
12B7
330
12B3
100
AcDbEntity
  8
1660.241
100
AcDbVertex
100
AcDbPolyFaceMeshVertex
 10
0.2828427180645388
 20
-0.9107864834366484
 30
4.029493689537103
 70
   192
  0
VERTEX
  5
12B8
330
12B3
100
AcDbEntity
  8
1660.241
100
AcDbVertex
100
AcDbPolyFaceMeshVertex
 10
0.3464101552960794
 20
-0.8522077985106152
 30
4.08807241916662
 70
   192
  0
VERTEX
  5
12B9
330
12B3
100
AcDbEntity
  8
1660.241
100
AcDbVertex
100
AcDbPolyFaceMeshVertex
 10
0.3863703310487192
 20
-0.783991534262721
 30
4.156288504600579
 70
   192
  0
VERTEX
  5
12BA
330
12B3
100
AcDbEntity
  8
1660.241
100
AcDbVertex
100
AcDbPolyFaceMeshVertex
 10
0.4000000208613795
 20
-0.7107864506540937
 30
4.22949349880224
 70
   192
  0
VERTEX
  5
12BB
330
12B3
100
AcDbEntity
  8
1660.241
100
AcDbVertex
100
AcDbPolyFaceMeshVertex
 10
0.3863703310487192
 20
-0.6375813670454664
 30
4.302698850631768
 70
   192
  0
VERTEX
  5
12BC
330
12B3
100
AcDbEntity
  8
1660.241
100
AcDbVertex
100
AcDbPolyFaceMeshVertex
 10
0.3464101552960794
 20
-0.5693651027975722
 30
4.370914936065728
 70
   192
  0
VERTEX
  5
12BD
330
12B3
100
AcDbEntity
  8
1660.241
100
AcDbVertex
100
AcDbPolyFaceMeshVertex
 10
0.2828427180645388
 20
-0.5107864625750227
 30
4.429493665695245
 70
   192
  0
VERTEX
  5
12BE
330
12B3
100
AcDbEntity
  8
1660.241
100
AcDbVertex
100
AcDbPolyFaceMeshVertex
 10
0.2000000104305666
 20
-0.4658374674616499
 30
4.474442481994683
 70
   192
  0
VERTEX
  5
12BF
330
12B3
100
AcDbEntity
  8
1660.241
100
AcDbVertex
100
AcDbPolyFaceMeshVertex
 10
0.1035276129839342
 20
-0.4375813566146536
 30
4.502698659896905
 70
   192
  0
VERTEX
  5
12C0
330
12B3
100
AcDbEntity
  8
1660.241
100
AcDbVertex
100
AcDbPolyFaceMeshVertex
 10
0.0000000000000475
 20
-0.4279437325893088
 30
4.512336373329217
 70
   192
  0
VERTEX
  5
12C1
330
12B3
100
AcDbEntity
  8
1660.241
100
AcDbVertex
100
AcDbPolyFaceMeshVertex
 10
0.0000000000000604
 20
-1.698450151830736
 30
5.782842636108453
 70
   192
  0
VERTEX
  5
12C2
330
12B3
100
AcDbEntity
  8
1660.241
100
AcDbVertex
100
AcDbPolyFaceMeshVertex
 10
0.1035276129839342
 20
-1.708087686449114
 30
5.773204922676141
 70
   192
  0
VERTEX
  5
12C3
330
12B3
100
AcDbEntity
  8
1660.241
100
AcDbVertex
100
AcDbPolyFaceMeshVertex
 10
0.2000000104305666
 20
-1.736343864351336
 30
5.744949102401788
 70
   192
  0
VERTEX
  5
12C4
330
12B3
100
AcDbEntity
  8
1660.241
100
AcDbVertex
100
AcDbPolyFaceMeshVertex
 10
0.2828427180645388
 20
-1.781292859464709
 30
5.699999928474481
 70
   192
  0
VERTEX
  5
12C5
330
12B3
100
AcDbEntity
  8
1660.241
100
AcDbVertex
100
AcDbPolyFaceMeshVertex
 10
0.3464101552960794
 20
-1.839871410280291
 30
5.641421198844964
 70
   192
  0
VERTEX
  5
12C6
330
12B3
100
AcDbEntity
  8
1660.241
100
AcDbVertex
100
AcDbPolyFaceMeshVertex
 10
0.3863703310487192
 20
-1.908087674528185
 30
5.573205113411004
 70
   192
  0
VERTEX
  5
12C7
330
12B3
100
AcDbEntity
  8
1660.241
100
AcDbVertex
100
AcDbPolyFaceMeshVertex
 10
0.4000000208613795
 20
-1.98129284754378
 30
5.500000119209344
 70
   192
  0
VERTEX
  5
12C8
330
12B3
100
AcDbEntity
  8
1660.241
100
AcDbVertex
100
AcDbPolyFaceMeshVertex
 10
0.3863703310487192
 20
-2.05449784174544
 30
5.426794767379815
 70
   192
  0
VERTEX
  5
12C9
330
12B3
100
AcDbEntity
  8
1660.241
100
AcDbVertex
100
AcDbPolyFaceMeshVertex
 10
0.3464101552960794
 20
-2.122714105993334
 30
5.358578681945855
 70
   192
  0
VERTEX
  5
12CA
330
12B3
100
AcDbEntity
  8
1660.241
100
AcDbVertex
100
AcDbPolyFaceMeshVertex
 10
0.2828427180645388
 20
-2.18129283562285
 30
5.299999952316339
 70
   192
  0
VERTEX
  5
12CB
330
12B3
100
AcDbEntity
  8
1660.241
100
AcDbVertex
100
AcDbPolyFaceMeshVertex
 10
0.2000000104305666
 20
-2.226241830736223
 30
5.2550511360169
 70
   192
  0
VERTEX
  5
12CC
330
12B3
100
AcDbEntity
  8
1660.241
100
AcDbVertex
100
AcDbPolyFaceMeshVertex
 10
0.1035276129839342
 20
-2.254497829824511
 30
5.226794958114679
 70
   192
  0
VERTEX
  5
12CD
330
12B3
100
AcDbEntity
  8
1660.241
100
AcDbVertex
100
AcDbPolyFaceMeshVertex
 10
0.0000000000000609
 20
-2.264135543256823
 30
5.217157244682367
 70
   192
  0
VERTEX
  5
12CE
330
12B3
100
AcDbEntity
  8
1660.241
100
AcDbFaceRecord
 10
0.0
 20
0.0
 30
0.0
 70
   128
 71
   -15
 72
    13
 73
    14
  0
VERTEX
  5
12CF
330
12B3
100
AcDbEntity
  8
1660.241
100
AcDbFaceRecord
 10
0.0
 20
0.0
 30
0.0
 70
   128
 71
   -16
 72
   -12
 73
    15
  0
VERTEX
  5
12D0
330
12B3
100
AcDbEntity
  8
1660.241
100
AcDbFaceRecord
 10
0.0
 20
0.0
 30
0.0
 70
   128
 71
   -10
 72
    17
 73
   -18
  0
VERTEX
  5
12D1
330
12B3
100
AcDbEntity
  8
1660.241
100
AcDbFaceRecord
 10
0.0
 20
0.0
 30
0.0
 70
   128
 71
    16
 72
   -17
 73
   -11
  0
VERTEX
  5
12D2
330
12B3
100
AcDbEntity
  8
1660.241
100
AcDbFaceRecord
 10
0.0
 20
0.0
 30
0.0
 70
   128
 71
    -9
 72
    18
 73
   -19
 74
     8
  0
VERTEX
  5
12D3
330
12B3
100
AcDbEntity
  8
1660.241
100
AcDbFaceRecord
 10
0.0
 20
0.0
 30
0.0
 70
   128
 71
   -16
 72
    11
 73
   -12
  0
VERTEX
  5
12D4
330
12B3
100
AcDbEntity
  8
1660.241
100
AcDbFaceRecord
 10
0.0
 20
0.0
 30
0.0
 70
   128
 71
    12
 72
   -13
 73
   -15
  0
VERTEX
  5
12D5
330
12B3
100
AcDbEntity
  8
1660.241
100
AcDbFaceRecord
 10
0.0
 20
0.0
 30
0.0
 70
   128
 71
    -8
 72
   -20
 73
     7
  0
VERTEX
  5
12D6
330
12B3
100
AcDbEntity
  8
1660.241
100
AcDbFaceRecord
 10
0.0
 20
0.0
 30
0.0
 70
   128
 71
   -10
 72
   -18
 73
     9
  0
VERTEX
  5
12D7
330
12B3
100
AcDbEntity
  8
1660.241
100
AcDbFaceRecord
 10
0.0
 20
0.0
 30
0.0
 70
   128
 71
    10
 72
   -11
 73
   -17
  0
VERTEX
  5
12D8
330
12B3
100
AcDbEntity
  8
1660.241
100
AcDbFaceRecord
 10
0.0
 20
0.0
 30
0.0
 70
   128
 71
   -20
 72
    -8
 73
    19
  0
VERTEX
  5
12D9
330
12B3
100
AcDbEntity
  8
1660.241
100
AcDbFaceRecord
 10
0.0
 20
0.0
 30
0.0
 70
   128
 71
    -6
 72
    21
 73
   -22
 74
     5
  0
VERTEX
  5
12DA
330
12B3
100
AcDbEntity
  8
1660.241
100
AcDbFaceRecord
 10
0.0
 20
0.0
 30
0.0
 70
   128
 71
   -23
 72
    -5
 73
    22
  0
VERTEX
  5
12DB
330
12B3
100
AcDbEntity
  8
1660.241
100
AcDbFaceRecord
 10
0.0
 20
0.0
 30
0.0
 70
   128
 71
    -3
 72
    24
 73
   -25
  0
VERTEX
  5
12DC
330
12B3
100
AcDbEntity
  8
1660.241
100
AcDbFaceRecord
 10
0.0
 20
0.0
 30
0.0
 70
   128
 71
    23
 72
   -24
 73
    -4
  0
VERTEX
  5
12DD
330
12B3
100
AcDbEntity
  8
1660.241
100
AcDbFaceRecord
 10
0.0
 20
0.0
 30
0.0
 70
   128
 71
    -2
 72
    25
 73
    26
 74
     1
  0
VERTEX
  5
12DE
330
12B3
100
AcDbEntity
  8
1660.241
100
AcDbFaceRecord
 10
0.0
 20
0.0
 30
0.0
 70
   128
 71
     6
 72
    -7
 73
   -21
  0
VERTEX
  5
12DF
330
12B3
100
AcDbEntity
  8
1660.241
100
AcDbFaceRecord
 10
0.0
 20
0.0
 30
0.0
 70
   128
 71
     2
 72
    -3
 73
   -25
  0
VERTEX
  5
12E0
330
12B3
100
AcDbEntity
  8
1660.241
100
AcDbFaceRecord
 10
0.0
 20
0.0
 30
0.0
 70
   128
 71
    -4
 72
   -24
 73
     3
  0
VERTEX
  5
12E1
330
12B3
100
AcDbEntity
  8
1660.241
100
AcDbFaceRecord
 10
0.0
 20
0.0
 30
0.0
 70
   128
 71
     4
 72
    -5
 73
   -23
  0
VERTEX
  5
12E2
330
12B3
100
AcDbEntity
  8
1660.241
100
AcDbFaceRecord
 10
0.0
 20
0.0
 30
0.0
 70
   128
 71
   -21
 72
    -7
 73
    20
  0
SEQEND
  5
12E3
330
12B3
100
AcDbEntity
  8
1660.241
  0
POLYLINE
  5
12E4
330
8DA
100
AcDbEntity
  8
1660.241
100
AcDbPolyFaceMesh
 66
     1
 10
0.0
 20
0.0
 30
0.0
 70
    64
 71
    26
 72
    21
1001
REVIT
1002
{
1070
     4
1000
6414
1002
}
1002
{
1070
     2
1000
-2001160
1002
}
  0
VERTEX
  5
12E5
330
12E4
100
AcDbEntity
  8
1660.241
100
AcDbVertex
100
AcDbPolyFaceMeshVertex
 10
0.0000000000000449
 20
-0.4279437325893088
 30
4.512336373329217
 70
   192
  0
VERTEX
  5
12E6
330
12E4
100
AcDbEntity
  8
1660.241
100
AcDbVertex
100
AcDbPolyFaceMeshVertex
 10
-0.1035276129844266
 20
-0.4375813566146536
 30
4.502698659896905
 70
   192
  0
VERTEX
  5
12E7
330
12E4
100
AcDbEntity
  8
1660.241
100
AcDbVertex
100
AcDbPolyFaceMeshVertex
 10
-0.200000010431059
 20
-0.4658374674616499
 30
4.474442481994683
 70
   192
  0
VERTEX
  5
12E8
330
12E4
100
AcDbEntity
  8
1660.241
100
AcDbVertex
100
AcDbPolyFaceMeshVertex
 10
-0.2828427180650311
 20
-0.5107864625750227
 30
4.429493665695245
 70
   192
  0
VERTEX
  5
12E9
330
12E4
100
AcDbEntity
  8
1660.241
100
AcDbVertex
100
AcDbPolyFaceMeshVertex
 10
-0.3464101552965718
 20
-0.5693651027975722
 30
4.370914936065728
 70
   192
  0
VERTEX
  5
12EA
330
12E4
100
AcDbEntity
  8
1660.241
100
AcDbVertex
100
AcDbPolyFaceMeshVertex
 10
-0.3863703310492116
 20
-0.6375813670454664
 30
4.302698850631768
 70
   192
  0
VERTEX
  5
12EB
330
12E4
100
AcDbEntity
  8
1660.241
100
AcDbVertex
100
AcDbPolyFaceMeshVertex
 10
-0.4000000208618718
 20
-0.7107864506540937
 30
4.22949349880224
 70
   192
  0
VERTEX
  5
12EC
330
12E4
100
AcDbEntity
  8
1660.241
100
AcDbVertex
100
AcDbPolyFaceMeshVertex
 10
-0.3863703310492116
 20
-0.783991534262721
 30
4.156288504600579
 70
   192
  0
VERTEX
  5
12ED
330
12E4
100
AcDbEntity
  8
1660.241
100
AcDbVertex
100
AcDbPolyFaceMeshVertex
 10
-0.3464101552965718
 20
-0.8522077985106152
 30
4.08807241916662
 70
   192
  0
VERTEX
  5
12EE
330
12E4
100
AcDbEntity
  8
1660.241
100
AcDbVertex
100
AcDbPolyFaceMeshVertex
 10
-0.2828427180650311
 20
-0.9107864834366484
 30
4.029493689537103
 70
   192
  0
VERTEX
  5
12EF
330
12E4
100
AcDbEntity
  8
1660.241
100
AcDbVertex
100
AcDbPolyFaceMeshVertex
 10
-0.200000010431059
 20
-0.955735389143054
 30
3.984544515609796
 70
   192
  0
VERTEX
  5
12F0
330
12E4
100
AcDbEntity
  8
1660.241
100
AcDbVertex
100
AcDbPolyFaceMeshVertex
 10
-0.1035276129844266
 20
-0.9839914776383086
 30
3.956288695335443
 70
   192
  0
VERTEX
  5
12F1
330
12E4
100
AcDbEntity
  8
1660.241
100
AcDbVertex
100
AcDbPolyFaceMeshVertex
 10
0.0000000000000454
 20
-0.9936291910706206
 30
3.946650981903131
 70
   192
  0
VERTEX
  5
12F2
330
12E4
100
AcDbEntity
  8
1660.241
100
AcDbVertex
100
AcDbPolyFaceMeshVertex
 10
0.0000000000000584
 20
-2.264135543256823
 30
5.217157244682367
 70
   192
  0
VERTEX
  5
12F3
330
12E4
100
AcDbEntity
  8
1660.241
100
AcDbVertex
100
AcDbPolyFaceMeshVertex
 10
-0.1035276129844266
 20
-2.254497829824511
 30
5.226794958114679
 70
   192
  0
VERTEX
  5
12F4
330
12E4
100
AcDbEntity
  8
1660.241
100
AcDbVertex
100
AcDbPolyFaceMeshVertex
 10
-0.200000010431059
 20
-2.226241830736223
 30
5.2550511360169
 70
   192
  0
VERTEX
  5
12F5
330
12E4
100
AcDbEntity
  8
1660.241
100
AcDbVertex
100
AcDbPolyFaceMeshVertex
 10
-0.2828427180650311
 20
-2.18129283562285
 30
5.299999952316339
 70
   192
  0
VERTEX
  5
12F6
330
12E4
100
AcDbEntity
  8
1660.241
100
AcDbVertex
100
AcDbPolyFaceMeshVertex
 10
-0.3464101552965718
 20
-2.122714105993334
 30
5.358578681945855
 70
   192
  0
VERTEX
  5
12F7
330
12E4
100
AcDbEntity
  8
1660.241
100
AcDbVertex
100
AcDbPolyFaceMeshVertex
 10
-0.3863703310492116
 20
-2.05449784174544
 30
5.426794767379815
 70
   192
  0
VERTEX
  5
12F8
330
12E4
100
AcDbEntity
  8
1660.241
100
AcDbVertex
100
AcDbPolyFaceMeshVertex
 10
-0.4000000208618718
 20
-1.98129284754378
 30
5.500000119209344
 70
   192
  0
VERTEX
  5
12F9
330
12E4
100
AcDbEntity
  8
1660.241
100
AcDbVertex
100
AcDbPolyFaceMeshVertex
 10
-0.3863703310492116
 20
-1.908087674528185
 30
5.573205113411004
 70
   192
  0
VERTEX
  5
12FA
330
12E4
100
AcDbEntity
  8
1660.241
100
AcDbVertex
100
AcDbPolyFaceMeshVertex
 10
-0.3464101552965718
 20
-1.839871410280291
 30
5.641421198844964
 70
   192
  0
VERTEX
  5
12FB
330
12E4
100
AcDbEntity
  8
1660.241
100
AcDbVertex
100
AcDbPolyFaceMeshVertex
 10
-0.2828427180650311
 20
-1.781292859464709
 30
5.699999928474481
 70
   192
  0
VERTEX
  5
12FC
330
12E4
100
AcDbEntity
  8
1660.241
100
AcDbVertex
100
AcDbPolyFaceMeshVertex
 10
-0.200000010431059
 20
-1.736343864351336
 30
5.744949102401788
 70
   192
  0
VERTEX
  5
12FD
330
12E4
100
AcDbEntity
  8
1660.241
100
AcDbVertex
100
AcDbPolyFaceMeshVertex
 10
-0.1035276129844266
 20
-1.708087686449114
 30
5.773204922676141
 70
   192
  0
VERTEX
  5
12FE
330
12E4
100
AcDbEntity
  8
1660.241
100
AcDbVertex
100
AcDbPolyFaceMeshVertex
 10
0.000000000000058
 20
-1.698450151830736
 30
5.782842636108453
 70
   192
  0
VERTEX
  5
12FF
330
12E4
100
AcDbEntity
  8
1660.241
100
AcDbFaceRecord
 10
0.0
 20
0.0
 30
0.0
 70
   128
 71
    13
 72
    14
 73
   -15
 74
    12
  0
VERTEX
  5
1300
330
12E4
100
AcDbEntity
  8
1660.241
100
AcDbFaceRecord
 10
0.0
 20
0.0
 30
0.0
 70
   128
 71
   -16
 72
   -12
 73
    15
  0
VERTEX
  5
1301
330
12E4
100
AcDbEntity
  8
1660.241
100
AcDbFaceRecord
 10
0.0
 20
0.0
 30
0.0
 70
   128
 71
   -10
 72
    17
 73
   -18
  0
VERTEX
  5
1302
330
12E4
100
AcDbEntity
  8
1660.241
100
AcDbFaceRecord
 10
0.0
 20
0.0
 30
0.0
 70
   128
 71
    16
 72
   -17
 73
   -11
  0
VERTEX
  5
1303
330
12E4
100
AcDbEntity
  8
1660.241
100
AcDbFaceRecord
 10
0.0
 20
0.0
 30
0.0
 70
   128
 71
    -9
 72
    18
 73
   -19
 74
     8
  0
VERTEX
  5
1304
330
12E4
100
AcDbEntity
  8
1660.241
100
AcDbFaceRecord
 10
0.0
 20
0.0
 30
0.0
 70
   128
 71
   -16
 72
    11
 73
   -12
  0
VERTEX
  5
1305
330
12E4
100
AcDbEntity
  8
1660.241
100
AcDbFaceRecord
 10
0.0
 20
0.0
 30
0.0
 70
   128
 71
    -8
 72
   -20
 73
     7
  0
VERTEX
  5
1306
330
12E4
100
AcDbEntity
  8
1660.241
100
AcDbFaceRecord
 10
0.0
 20
0.0
 30
0.0
 70
   128
 71
   -10
 72
   -18
 73
     9
  0
VERTEX
  5
1307
330
12E4
100
AcDbEntity
  8
1660.241
100
AcDbFaceRecord
 10
0.0
 20
0.0
 30
0.0
 70
   128
 71
    10
 72
   -11
 73
   -17
  0
VERTEX
  5
1308
330
12E4
100
AcDbEntity
  8
1660.241
100
AcDbFaceRecord
 10
0.0
 20
0.0
 30
0.0
 70
   128
 71
   -20
 72
    -8
 73
    19
  0
VERTEX
  5
1309
330
12E4
100
AcDbEntity
  8
1660.241
100
AcDbFaceRecord
 10
0.0
 20
0.0
 30
0.0
 70
   128
 71
    -6
 72
    21
 73
   -22
 74
     5
  0
VERTEX
  5
130A
330
12E4
100
AcDbEntity
  8
1660.241
100
AcDbFaceRecord
 10
0.0
 20
0.0
 30
0.0
 70
   128
 71
   -23
 72
    -5
 73
    22
  0
VERTEX
  5
130B
330
12E4
100
AcDbEntity
  8
1660.241
100
AcDbFaceRecord
 10
0.0
 20
0.0
 30
0.0
 70
   128
 71
    -3
 72
    24
 73
   -25
  0
VERTEX
  5
130C
330
12E4
100
AcDbEntity
  8
1660.241
100
AcDbFaceRecord
 10
0.0
 20
0.0
 30
0.0
 70
   128
 71
    23
 72
   -24
 73
    -4
  0
VERTEX
  5
130D
330
12E4
100
AcDbEntity
  8
1660.241
100
AcDbFaceRecord
 10
0.0
 20
0.0
 30
0.0
 70
   128
 71
    -2
 72
    25
 73
   -26
  0
VERTEX
  5
130E
330
12E4
100
AcDbEntity
  8
1660.241
100
AcDbFaceRecord
 10
0.0
 20
0.0
 30
0.0
 70
   128
 71
     6
 72
    -7
 73
   -21
  0
VERTEX
  5
130F
330
12E4
100
AcDbEntity
  8
1660.241
100
AcDbFaceRecord
 10
0.0
 20
0.0
 30
0.0
 70
   128
 71
     2
 72
    -3
 73
   -25
  0
VERTEX
  5
1310
330
12E4
100
AcDbEntity
  8
1660.241
100
AcDbFaceRecord
 10
0.0
 20
0.0
 30
0.0
 70
   128
 71
    -4
 72
   -24
 73
     3
  0
VERTEX
  5
1311
330
12E4
100
AcDbEntity
  8
1660.241
100
AcDbFaceRecord
 10
0.0
 20
0.0
 30
0.0
 70
   128
 71
     4
 72
    -5
 73
   -23
  0
VERTEX
  5
1312
330
12E4
100
AcDbEntity
  8
1660.241
100
AcDbFaceRecord
 10
0.0
 20
0.0
 30
0.0
 70
   128
 71
     1
 72
    -2
 73
    26
  0
VERTEX
  5
1313
330
12E4
100
AcDbEntity
  8
1660.241
100
AcDbFaceRecord
 10
0.0
 20
0.0
 30
0.0
 70
   128
 71
   -21
 72
    -7
 73
    20
  0
SEQEND
  5
1314
330
12E4
100
AcDbEntity
  8
1660.241
  0
POLYLINE
  5
1315
330
8DA
100
AcDbEntity
  8
1660.241
100
AcDbPolyFaceMesh
 66
     1
 10
0.0
 20
0.0
 30
0.0
 70
    64
 71
    26
 72
    12
1001
REVIT
1002
{
1070
     4
1000
6414
1002
}
1002
{
1070
     2
1000
-2001160
1002
}
  0
VERTEX
  5
1316
330
1315
100
AcDbEntity
  8
1660.241
100
AcDbVertex
100
AcDbPolyFaceMeshVertex
 10
0.000000000000032
 20
0.1250000037254648
 30
2.815280020237024
 70
   192
  0
VERTEX
  5
1317
330
1315
100
AcDbEntity
  8
1660.241
100
AcDbVertex
100
AcDbPolyFaceMeshVertex
 10
-0.0647047609093267
 20
0.1164814420046167
 30
2.815280020237024
 70
   192
  0
VERTEX
  5
1318
330
1315
100
AcDbEntity
  8
1660.241
100
AcDbVertex
100
AcDbPolyFaceMeshVertex
 10
-0.1250000037255365
 20
0.0915063433350878
 30
2.815280020237024
 70
   192
  0
VERTEX
  5
1319
330
1315
100
AcDbEntity
  8
1660.241
100
AcDbVertex
100
AcDbPolyFaceMeshVertex
 10
-0.1767766959967691
 20
0.0517766922714071
 30
2.815280020237024
 70
   192
  0
VERTEX
  5
131A
330
1315
100
AcDbEntity
  8
1660.241
100
AcDbVertex
100
AcDbPolyFaceMeshVertex
 10
-0.2165063470604497
 20
0.0000000000001745
 30
2.815280020237024
 70
   192
  0
VERTEX
  5
131B
330
1315
100
AcDbEntity
  8
1660.241
100
AcDbVertex
100
AcDbPolyFaceMeshVertex
 10
-0.2414814457299787
 20
-0.0602952428160353
 30
2.815280020237024
 70
   192
  0
VERTEX
  5
131C
330
1315
100
AcDbEntity
  8
1660.241
100
AcDbVertex
100
AcDbPolyFaceMeshVertex
 10
-0.2500000074508267
 20
-0.125000003725483
 30
2.815280020237024
 70
   192
  0
VERTEX
  5
131D
330
1315
100
AcDbEntity
  8
1660.241
100
AcDbVertex
100
AcDbPolyFaceMeshVertex
 10
-0.2414814457299787
 20
-0.1897047646341963
 30
2.815280020237024
 70
   192
  0
VERTEX
  5
131E
330
1315
100
AcDbEntity
  8
1660.241
100
AcDbVertex
100
AcDbPolyFaceMeshVertex
 10
-0.2165063470604497
 20
-0.2500000074504061
 30
2.815280020237024
 70
   192
  0
VERTEX
  5
131F
330
1315
100
AcDbEntity
  8
1660.241
100
AcDbVertex
100
AcDbPolyFaceMeshVertex
 10
-0.1767766959967691
 20
-0.3017766997216387
 30
2.815280020237024
 70
   192
  0
VERTEX
  5
1320
330
1315
100
AcDbEntity
  8
1660.241
100
AcDbVertex
100
AcDbPolyFaceMeshVertex
 10
-0.1250000037255365
 20
-0.3415063507853193
 30
2.815280020237024
 70
   192
  0
VERTEX
  5
1321
330
1315
100
AcDbEntity
  8
1660.241
100
AcDbVertex
100
AcDbPolyFaceMeshVertex
 10
-0.0647047609093267
 20
-0.3664814494548483
 30
2.815280020237024
 70
   192
  0
VERTEX
  5
1322
330
1315
100
AcDbEntity
  8
1660.241
100
AcDbVertex
100
AcDbPolyFaceMeshVertex
 10
0.000000000000028
 20
-0.3750000111756964
 30
2.815280020237024
 70
   192
  0
VERTEX
  5
1323
330
1315
100
AcDbEntity
  8
1660.241
100
AcDbVertex
100
AcDbPolyFaceMeshVertex
 10
0.0000000000000019
 20
-0.3750000111756964
 30
0.3000000044704041
 70
   192
  0
VERTEX
  5
1324
330
1315
100
AcDbEntity
  8
1660.241
100
AcDbVertex
100
AcDbPolyFaceMeshVertex
 10
-0.0647047609093267
 20
-0.3664814494548483
 30
0.3000000044704041
 70
   192
  0
VERTEX
  5
1325
330
1315
100
AcDbEntity
  8
1660.241
100
AcDbVertex
100
AcDbPolyFaceMeshVertex
 10
-0.1250000037255365
 20
-0.3415063507853193
 30
0.3000000044704041
 70
   192
  0
VERTEX
  5
1326
330
1315
100
AcDbEntity
  8
1660.241
100
AcDbVertex
100
AcDbPolyFaceMeshVertex
 10
-0.1767766959967691
 20
-0.3017766997216387
 30
0.3000000044704041
 70
   192
  0
VERTEX
  5
1327
330
1315
100
AcDbEntity
  8
1660.241
100
AcDbVertex
100
AcDbPolyFaceMeshVertex
 10
-0.2165063470604497
 20
-0.2500000074504061
 30
0.3000000044704041
 70
   192
  0
VERTEX
  5
1328
330
1315
100
AcDbEntity
  8
1660.241
100
AcDbVertex
100
AcDbPolyFaceMeshVertex
 10
-0.2414814457299787
 20
-0.1897047646341963
 30
0.3000000044704041
 70
   192
  0
VERTEX
  5
1329
330
1315
100
AcDbEntity
  8
1660.241
100
AcDbVertex
100
AcDbPolyFaceMeshVertex
 10
-0.2500000074508267
 20
-0.1250000037254491
 30
0.3000000044704041
 70
   192
  0
VERTEX
  5
132A
330
1315
100
AcDbEntity
  8
1660.241
100
AcDbVertex
100
AcDbPolyFaceMeshVertex
 10
-0.2414814457299787
 20
-0.0602952428160353
 30
0.3000000044704041
 70
   192
  0
VERTEX
  5
132B
330
1315
100
AcDbEntity
  8
1660.241
100
AcDbVertex
100
AcDbPolyFaceMeshVertex
 10
-0.2165063470604497
 20
0.0000000000001745
 30
0.3000000044704041
 70
   192
  0
VERTEX
  5
132C
330
1315
100
AcDbEntity
  8
1660.241
100
AcDbVertex
100
AcDbPolyFaceMeshVertex
 10
-0.1767766959967691
 20
0.0517766922714071
 30
0.3000000044704041
 70
   192
  0
VERTEX
  5
132D
330
1315
100
AcDbEntity
  8
1660.241
100
AcDbVertex
100
AcDbPolyFaceMeshVertex
 10
-0.1250000037255365
 20
0.0915063433350878
 30
0.3000000044704041
 70
   192
  0
VERTEX
  5
132E
330
1315
100
AcDbEntity
  8
1660.241
100
AcDbVertex
100
AcDbPolyFaceMeshVertex
 10
-0.0647047609093267
 20
0.1164814420046167
 30
0.3000000044704041
 70
   192
  0
VERTEX
  5
132F
330
1315
100
AcDbEntity
  8
1660.241
100
AcDbVertex
100
AcDbPolyFaceMeshVertex
 10
0.0000000000000042
 20
0.1250000037254648
 30
0.3000000044704041
 70
   192
  0
VERTEX
  5
1330
330
1315
100
AcDbEntity
  8
1660.241
100
AcDbFaceRecord
 10
0.0
 20
0.0
 30
0.0
 70
   128
 71
    -3
 72
    24
 73
   -25
 74
     2
  0
VERTEX
  5
1331
330
1315
100
AcDbEntity
  8
1660.241
100
AcDbFaceRecord
 10
0.0
 20
0.0
 30
0.0
 70
   128
 71
    -2
 72
    25
 73
    26
 74
     1
  0
VERTEX
  5
1332
330
1315
100
AcDbEntity
  8
1660.241
100
AcDbFaceRecord
 10
0.0
 20
0.0
 30
0.0
 70
   128
 71
    22
 72
   -23
 73
     4
 74
    -5
  0
VERTEX
  5
1333
330
1315
100
AcDbEntity
  8
1660.241
100
AcDbFaceRecord
 10
0.0
 20
0.0
 30
0.0
 70
   128
 71
    23
 72
   -24
 73
     3
 74
    -4
  0
VERTEX
  5
1334
330
1315
100
AcDbEntity
  8
1660.241
100
AcDbFaceRecord
 10
0.0
 20
0.0
 30
0.0
 70
   128
 71
    21
 72
   -22
 73
     5
 74
    -6
  0
VERTEX
  5
1335
330
1315
100
AcDbEntity
  8
1660.241
100
AcDbFaceRecord
 10
0.0
 20
0.0
 30
0.0
 70
   128
 71
     6
 72
    -7
 73
    20
 74
   -21
  0
VERTEX
  5
1336
330
1315
100
AcDbEntity
  8
1660.241
100
AcDbFaceRecord
 10
0.0
 20
0.0
 30
0.0
 70
   128
 71
    17
 72
   -18
 73
     9
 74
   -10
  0
VERTEX
  5
1337
330
1315
100
AcDbEntity
  8
1660.241
100
AcDbFaceRecord
 10
0.0
 20
0.0
 30
0.0
 70
   128
 71
    18
 72
   -19
 73
     8
 74
    -9
  0
VERTEX
  5
1338
330
1315
100
AcDbEntity
  8
1660.241
100
AcDbFaceRecord
 10
0.0
 20
0.0
 30
0.0
 70
   128
 71
    14
 72
   -15
 73
    12
 74
    13
  0
VERTEX
  5
1339
330
1315
100
AcDbEntity
  8
1660.241
100
AcDbFaceRecord
 10
0.0
 20
0.0
 30
0.0
 70
   128
 71
    15
 72
   -16
 73
    11
 74
   -12
  0
VERTEX
  5
133A
330
1315
100
AcDbEntity
  8
1660.241
100
AcDbFaceRecord
 10
0.0
 20
0.0
 30
0.0
 70
   128
 71
    16
 72
   -17
 73
    10
 74
   -11
  0
VERTEX
  5
133B
330
1315
100
AcDbEntity
  8
1660.241
100
AcDbFaceRecord
 10
0.0
 20
0.0
 30
0.0
 70
   128
 71
     7
 72
    -8
 73
    19
 74
   -20
  0
SEQEND
  5
133C
330
1315
100
AcDbEntity
  8
1660.241
  0
POLYLINE
  5
133D
330
8DA
100
AcDbEntity
  8
1660.241
100
AcDbPolyFaceMesh
 66
     1
 10
0.0
 20
0.0
 30
0.0
 70
    64
 71
    26
 72
    12
1001
REVIT
1002
{
1070
     4
1000
6414
1002
}
1002
{
1070
     2
1000
-2001160
1002
}
  0
VERTEX
  5
133E
330
133D
100
AcDbEntity
  8
1660.241
100
AcDbVertex
100
AcDbPolyFaceMeshVertex
 10
0.0000000000000296
 20
-0.3750000111756964
 30
2.815280020237024
 70
   192
  0
VERTEX
  5
133F
330
133D
100
AcDbEntity
  8
1660.241
100
AcDbVertex
100
AcDbPolyFaceMeshVertex
 10
0.0647047609088343
 20
-0.3664814494548483
 30
2.815280020237024
 70
   192
  0
VERTEX
  5
1340
330
133D
100
AcDbEntity
  8
1660.241
100
AcDbVertex
100
AcDbPolyFaceMeshVertex
 10
0.125000003725044
 20
-0.3415063507853193
 30
2.815280020237024
 70
   192
  0
VERTEX
  5
1341
330
133D
100
AcDbEntity
  8
1660.241
100
AcDbVertex
100
AcDbPolyFaceMeshVertex
 10
0.1767766959962767
 20
-0.3017766997216387
 30
2.815280020237024
 70
   192
  0
VERTEX
  5
1342
330
133D
100
AcDbEntity
  8
1660.241
100
AcDbVertex
100
AcDbPolyFaceMeshVertex
 10
0.2165063470599573
 20
-0.2500000074504061
 30
2.815280020237024
 70
   192
  0
VERTEX
  5
1343
330
133D
100
AcDbEntity
  8
1660.241
100
AcDbVertex
100
AcDbPolyFaceMeshVertex
 10
0.2414814457294863
 20
-0.1897047646341963
 30
2.815280020237024
 70
   192
  0
VERTEX
  5
1344
330
133D
100
AcDbEntity
  8
1660.241
100
AcDbVertex
100
AcDbPolyFaceMeshVertex
 10
0.2500000074503343
 20
-0.1250000037254875
 30
2.815280020237024
 70
   192
  0
VERTEX
  5
1345
330
133D
100
AcDbEntity
  8
1660.241
100
AcDbVertex
100
AcDbPolyFaceMeshVertex
 10
0.2414814457294863
 20
-0.0602952428160353
 30
2.815280020237024
 70
   192
  0
VERTEX
  5
1346
330
133D
100
AcDbEntity
  8
1660.241
100
AcDbVertex
100
AcDbPolyFaceMeshVertex
 10
0.2165063470599573
 20
0.0000000000001745
 30
2.815280020237024
 70
   192
  0
VERTEX
  5
1347
330
133D
100
AcDbEntity
  8
1660.241
100
AcDbVertex
100
AcDbPolyFaceMeshVertex
 10
0.1767766959962767
 20
0.0517766922714071
 30
2.815280020237024
 70
   192
  0
VERTEX
  5
1348
330
133D
100
AcDbEntity
  8
1660.241
100
AcDbVertex
100
AcDbPolyFaceMeshVertex
 10
0.125000003725044
 20
0.0915063433350878
 30
2.815280020237024
 70
   192
  0
VERTEX
  5
1349
330
133D
100
AcDbEntity
  8
1660.241
100
AcDbVertex
100
AcDbPolyFaceMeshVertex
 10
0.0647047609088343
 20
0.1164814420046167
 30
2.815280020237024
 70
   192
  0
VERTEX
  5
134A
330
133D
100
AcDbEntity
  8
1660.241
100
AcDbVertex
100
AcDbPolyFaceMeshVertex
 10
0.0000000000000335
 20
0.1250000037254648
 30
2.815280020237024
 70
   192
  0
VERTEX
  5
134B
330
133D
100
AcDbEntity
  8
1660.241
100
AcDbVertex
100
AcDbPolyFaceMeshVertex
 10
0.0000000000000076
 20
0.1250000037254648
 30
0.3000000044704041
 70
   192
  0
VERTEX
  5
134C
330
133D
100
AcDbEntity
  8
1660.241
100
AcDbVertex
100
AcDbPolyFaceMeshVertex
 10
0.0647047609088343
 20
0.1164814420046167
 30
0.3000000044704041
 70
   192
  0
VERTEX
  5
134D
330
133D
100
AcDbEntity
  8
1660.241
100
AcDbVertex
100
AcDbPolyFaceMeshVertex
 10
0.125000003725044
 20
0.0915063433350878
 30
0.3000000044704041
 70
   192
  0
VERTEX
  5
134E
330
133D
100
AcDbEntity
  8
1660.241
100
AcDbVertex
100
AcDbPolyFaceMeshVertex
 10
0.1767766959962767
 20
0.0517766922714071
 30
0.3000000044704041
 70
   192
  0
VERTEX
  5
134F
330
133D
100
AcDbEntity
  8
1660.241
100
AcDbVertex
100
AcDbPolyFaceMeshVertex
 10
0.2165063470599573
 20
0.0000000000001745
 30
0.3000000044704041
 70
   192
  0
VERTEX
  5
1350
330
133D
100
AcDbEntity
  8
1660.241
100
AcDbVertex
100
AcDbPolyFaceMeshVertex
 10
0.2414814457294863
 20
-0.0602952428160353
 30
0.3000000044704041
 70
   192
  0
VERTEX
  5
1351
330
133D
100
AcDbEntity
  8
1660.241
100
AcDbVertex
100
AcDbPolyFaceMeshVertex
 10
0.2500000074503343
 20
-0.1250000037254533
 30
0.3000000044704041
 70
   192
  0
VERTEX
  5
1352
330
133D
100
AcDbEntity
  8
1660.241
100
AcDbVertex
100
AcDbPolyFaceMeshVertex
 10
0.2414814457294863
 20
-0.1897047646341963
 30
0.3000000044704041
 70
   192
  0
VERTEX
  5
1353
330
133D
100
AcDbEntity
  8
1660.241
100
AcDbVertex
100
AcDbPolyFaceMeshVertex
 10
0.2165063470599573
 20
-0.2500000074504061
 30
0.3000000044704041
 70
   192
  0
VERTEX
  5
1354
330
133D
100
AcDbEntity
  8
1660.241
100
AcDbVertex
100
AcDbPolyFaceMeshVertex
 10
0.1767766959962767
 20
-0.3017766997216387
 30
0.3000000044704041
 70
   192
  0
VERTEX
  5
1355
330
133D
100
AcDbEntity
  8
1660.241
100
AcDbVertex
100
AcDbPolyFaceMeshVertex
 10
0.125000003725044
 20
-0.3415063507853193
 30
0.3000000044704041
 70
   192
  0
VERTEX
  5
1356
330
133D
100
AcDbEntity
  8
1660.241
100
AcDbVertex
100
AcDbPolyFaceMeshVertex
 10
0.0647047609088343
 20
-0.3664814494548483
 30
0.3000000044704041
 70
   192
  0
VERTEX
  5
1357
330
133D
100
AcDbEntity
  8
1660.241
100
AcDbVertex
100
AcDbPolyFaceMeshVertex
 10
0.0000000000000004
 20
-0.3750000111756964
 30
0.3000000044704041
 70
   192
  0
VERTEX
  5
1358
330
133D
100
AcDbEntity
  8
1660.241
100
AcDbFaceRecord
 10
0.0
 20
0.0
 30
0.0
 70
   128
 71
    24
 72
   -25
 73
     2
 74
    -3
  0
VERTEX
  5
1359
330
133D
100
AcDbEntity
  8
1660.241
100
AcDbFaceRecord
 10
0.0
 20
0.0
 30
0.0
 70
   128
 71
    25
 72
    26
 73
     1
 74
    -2
  0
VERTEX
  5
135A
330
133D
100
AcDbEntity
  8
1660.241
100
AcDbFaceRecord
 10
0.0
 20
0.0
 30
0.0
 70
   128
 71
    21
 72
   -22
 73
     5
 74
    -6
  0
VERTEX
  5
135B
330
133D
100
AcDbEntity
  8
1660.241
100
AcDbFaceRecord
 10
0.0
 20
0.0
 30
0.0
 70
   128
 71
    22
 72
   -23
 73
     4
 74
    -5
  0
VERTEX
  5
135C
330
133D
100
AcDbEntity
  8
1660.241
100
AcDbFaceRecord
 10
0.0
 20
0.0
 30
0.0
 70
   128
 71
    23
 72
   -24
 73
     3
 74
    -4
  0
VERTEX
  5
135D
330
133D
100
AcDbEntity
  8
1660.241
100
AcDbFaceRecord
 10
0.0
 20
0.0
 30
0.0
 70
   128
 71
     6
 72
    -7
 73
    20
 74
   -21
  0
VERTEX
  5
135E
330
133D
100
AcDbEntity
  8
1660.241
100
AcDbFaceRecord
 10
0.0
 20
0.0
 30
0.0
 70
   128
 71
    17
 72
   -18
 73
     9
 74
   -10
  0
VERTEX
  5
135F
330
133D
100
AcDbEntity
  8
1660.241
100
AcDbFaceRecord
 10
0.0
 20
0.0
 30
0.0
 70
   128
 71
    18
 72
   -19
 73
     8
 74
    -9
  0
VERTEX
  5
1360
330
133D
100
AcDbEntity
  8
1660.241
100
AcDbFaceRecord
 10
0.0
 20
0.0
 30
0.0
 70
   128
 71
    14
 72
   -15
 73
    12
 74
    13
  0
VERTEX
  5
1361
330
133D
100
AcDbEntity
  8
1660.241
100
AcDbFaceRecord
 10
0.0
 20
0.0
 30
0.0
 70
   128
 71
    15
 72
   -16
 73
    11
 74
   -12
  0
VERTEX
  5
1362
330
133D
100
AcDbEntity
  8
1660.241
100
AcDbFaceRecord
 10
0.0
 20
0.0
 30
0.0
 70
   128
 71
    16
 72
   -17
 73
    10
 74
   -11
  0
VERTEX
  5
1363
330
133D
100
AcDbEntity
  8
1660.241
100
AcDbFaceRecord
 10
0.0
 20
0.0
 30
0.0
 70
   128
 71
     7
 72
    -8
 73
    19
 74
   -20
  0
SEQEND
  5
1364
330
133D
100
AcDbEntity
  8
1660.241
  0
POLYLINE
  5
1365
330
8DA
100
AcDbEntity
  8
1660.241
100
AcDbPolyFaceMesh
 66
     1
 10
0.0
 20
0.0
 30
0.0
 70
    64
 71
    40
 72
    46
1001
REVIT
1002
{
1070
     4
1000
6414
1002
}
1002
{
1070
     2
1000
-2001160
1002
}
  0
VERTEX
  5
1366
330
1365
100
AcDbEntity
  8
1660.241
100
AcDbVertex
100
AcDbPolyFaceMeshVertex
 10
0.0000000000000298
 20
-0.3750000111756964
 30
2.815280020237024
 70
   192
  0
VERTEX
  5
1367
330
1365
100
AcDbEntity
  8
1660.241
100
AcDbVertex
100
AcDbPolyFaceMeshVertex
 10
-0.0647047609093267
 20
-0.3664814494548483
 30
2.815280020237024
 70
   192
  0
VERTEX
  5
1368
330
1365
100
AcDbEntity
  8
1660.241
100
AcDbVertex
100
AcDbPolyFaceMeshVertex
 10
-0.1250000037255365
 20
-0.3415063507853193
 30
2.815280020237024
 70
   192
  0
VERTEX
  5
1369
330
1365
100
AcDbEntity
  8
1660.241
100
AcDbVertex
100
AcDbPolyFaceMeshVertex
 10
-0.1767766959967691
 20
-0.3017766997216387
 30
2.815280020237024
 70
   192
  0
VERTEX
  5
136A
330
1365
100
AcDbEntity
  8
1660.241
100
AcDbVertex
100
AcDbPolyFaceMeshVertex
 10
-0.2165063470604497
 20
-0.2500000074504061
 30
2.815280020237024
 70
   192
  0
VERTEX
  5
136B
330
1365
100
AcDbEntity
  8
1660.241
100
AcDbVertex
100
AcDbPolyFaceMeshVertex
 10
-0.2414814457299787
 20
-0.1897047646341963
 30
2.815280020237024
 70
   192
  0
VERTEX
  5
136C
330
1365
100
AcDbEntity
  8
1660.241
100
AcDbVertex
100
AcDbPolyFaceMeshVertex
 10
-0.2500000074508267
 20
-0.1250000037254844
 30
2.815280020237024
 70
   192
  0
VERTEX
  5
136D
330
1365
100
AcDbEntity
  8
1660.241
100
AcDbVertex
100
AcDbPolyFaceMeshVertex
 10
-0.2414814457299787
 20
-0.0602952428160353
 30
2.815280020237024
 70
   192
  0
VERTEX
  5
136E
330
1365
100
AcDbEntity
  8
1660.241
100
AcDbVertex
100
AcDbPolyFaceMeshVertex
 10
-0.2165063470604497
 20
0.0000000000001745
 30
2.815280020237024
 70
   192
  0
VERTEX
  5
136F
330
1365
100
AcDbEntity
  8
1660.241
100
AcDbVertex
100
AcDbPolyFaceMeshVertex
 10
-0.1767766959967691
 20
0.0517766922714071
 30
2.815280020237024
 70
   192
  0
VERTEX
  5
1370
330
1365
100
AcDbEntity
  8
1660.241
100
AcDbVertex
100
AcDbPolyFaceMeshVertex
 10
-0.1250000037255365
 20
0.0915063433350878
 30
2.815280020237024
 70
   192
  0
VERTEX
  5
1371
330
1365
100
AcDbEntity
  8
1660.241
100
AcDbVertex
100
AcDbPolyFaceMeshVertex
 10
-0.0647047609093267
 20
0.1164814420046167
 30
2.815280020237024
 70
   192
  0
VERTEX
  5
1372
330
1365
100
AcDbEntity
  8
1660.241
100
AcDbVertex
100
AcDbPolyFaceMeshVertex
 10
0.0000000000000319
 20
0.1250000037254648
 30
2.815280020237024
 70
   192
  0
VERTEX
  5
1373
330
1365
100
AcDbEntity
  8
1660.241
100
AcDbVertex
100
AcDbPolyFaceMeshVertex
 10
0.0000000000000407
 20
-0.0462710559366388
 30
3.676317930221613
 70
   192
  0
VERTEX
  5
1374
330
1365
100
AcDbEntity
  8
1660.241
100
AcDbVertex
100
AcDbPolyFaceMeshVertex
 10
0.0000000000000482
 20
-0.5340097434817
 30
4.406270384788568
 70
   192
  0
VERTEX
  5
1375
330
1365
100
AcDbEntity
  8
1660.241
100
AcDbVertex
100
AcDbPolyFaceMeshVertex
 10
-0.0647047609093267
 20
-0.5400332696734114
 30
4.400246858596856
 70
   192
  0
VERTEX
  5
1376
330
1365
100
AcDbEntity
  8
1660.241
100
AcDbVertex
100
AcDbPolyFaceMeshVertex
 10
-0.1250000037255365
 20
-0.5576933361588164
 30
4.382586836814935
 70
   192
  0
VERTEX
  5
1377
330
1365
100
AcDbEntity
  8
1660.241
100
AcDbVertex
100
AcDbPolyFaceMeshVertex
 10
-0.1767766959967691
 20
-0.5857864357529326
 30
4.354493737220819
 70
   192
  0
VERTEX
  5
1378
330
1365
100
AcDbEntity
  8
1660.241
100
AcDbVertex
100
AcDbPolyFaceMeshVertex
 10
-0.2165063470604497
 20
-0.6223980970678969
 30
4.317881941795404
 70
   192
  0
VERTEX
  5
1379
330
1365
100
AcDbEntity
  8
1660.241
100
AcDbVertex
100
AcDbPolyFaceMeshVertex
 10
-0.2414814457299787
 20
-0.6650332845745725
 30
4.275246620178277
 70
   192
  0
VERTEX
  5
137A
330
1365
100
AcDbEntity
  8
1660.241
100
AcDbVertex
100
AcDbPolyFaceMeshVertex
 10
-0.2500000074508267
 20
-0.7107864506540937
 30
4.22949349880224
 70
   192
  0
VERTEX
  5
137B
330
1365
100
AcDbEntity
  8
1660.241
100
AcDbVertex
100
AcDbPolyFaceMeshVertex
 10
-0.2414814457299787
 20
-0.7565396167336149
 30
4.183740377426202
 70
   192
  0
VERTEX
  5
137C
330
1365
100
AcDbEntity
  8
1660.241
100
AcDbVertex
100
AcDbPolyFaceMeshVertex
 10
-0.2165063470604497
 20
-0.7991748042402906
 30
4.141105413436944
 70
   192
  0
VERTEX
  5
137D
330
1365
100
AcDbEntity
  8
1660.241
100
AcDbVertex
100
AcDbPolyFaceMeshVertex
 10
-0.1767766959967691
 20
-0.8357864208517712
 30
4.104493618011529
 70
   192
  0
VERTEX
  5
137E
330
1365
100
AcDbEntity
  8
1660.241
100
AcDbVertex
100
AcDbPolyFaceMeshVertex
 10
-0.1250000037255365
 20
-0.863879565149371
 30
4.076400518417413
 70
   192
  0
VERTEX
  5
137F
330
1365
100
AcDbEntity
  8
1660.241
100
AcDbVertex
100
AcDbPolyFaceMeshVertex
 10
-0.0647047609093267
 20
-0.8815395869312926
 30
4.058740496635492
 70
   192
  0
VERTEX
  5
1380
330
1365
100
AcDbEntity
  8
1660.241
100
AcDbVertex
100
AcDbPolyFaceMeshVertex
 10
0.0000000000000425
 20
-0.887563113123004
 30
4.05271697044378
 70
   192
  0
VERTEX
  5
1381
330
1365
100
AcDbEntity
  8
1660.241
100
AcDbVertex
100
AcDbPolyFaceMeshVertex
 10
0.0000000000000367
 20
-0.5082108266649886
 30
3.48497593402868
 70
   192
  0
VERTEX
  5
1382
330
1365
100
AcDbEntity
  8
1660.241
100
AcDbVertex
100
AcDbPolyFaceMeshVertex
 10
-0.2426853552463132
 20
-0.2217788100240869
 30
3.603620052337701
 70
   192
  0
VERTEX
  5
1383
330
1365
100
AcDbEntity
  8
1660.241
100
AcDbVertex
100
AcDbPolyFaceMeshVertex
 10
-0.209786653518923
 20
-0.4775931201873465
 30
3.687423706054743
 70
   192
  0
VERTEX
  5
1384
330
1365
100
AcDbEntity
  8
1660.241
100
AcDbVertex
100
AcDbPolyFaceMeshVertex
 10
0.0000000000000369
 20
0.0280804038049536
 30
3.302527785301264
 70
   192
  0
VERTEX
  5
1385
330
1365
100
AcDbEntity
  8
1660.241
100
AcDbVertex
100
AcDbPolyFaceMeshVertex
 10
0.000000000000044
 20
-0.2580060996113462
 30
3.993201613426263
 70
   192
  0
VERTEX
  5
1386
330
1365
100
AcDbEntity
  8
1660.241
100
AcDbVertex
100
AcDbPolyFaceMeshVertex
 10
-0.2367702573540289
 20
-0.2615362443028135
 30
3.276743173599298
 70
   192
  0
VERTEX
  5
1387
330
1365
100
AcDbEntity
  8
1660.241
100
AcDbVertex
100
AcDbPolyFaceMeshVertex
 10
-0.1878824830057699
 20
-0.0139800757167978
 30
3.295378088951166
 70
   192
  0
VERTEX
  5
1388
330
1365
100
AcDbEntity
  8
1660.241
100
AcDbVertex
100
AcDbPolyFaceMeshVertex
 10
-0.1878824830057699
 20
-0.2928030118344469
 30
3.968515992164667
 70
   192
  0
VERTEX
  5
1389
330
1365
100
AcDbEntity
  8
1660.241
100
AcDbVertex
100
AcDbPolyFaceMeshVertex
 10
0.0000000000000323
 20
-0.4234597943721457
 30
3.058903813362177
 70
   192
  0
VERTEX
  5
138A
330
1365
100
AcDbEntity
  8
1660.241
100
AcDbVertex
100
AcDbPolyFaceMeshVertex
 10
0.0000000000000404
 20
-0.7495613135395688
 30
3.846182584762628
 70
   192
  0
VERTEX
  5
138B
330
1365
100
AcDbEntity
  8
1660.241
100
AcDbVertex
100
AcDbPolyFaceMeshVertex
 10
-0.1377730295064527
 20
-0.4004729501901312
 30
3.300131320953424
 70
   192
  0
VERTEX
  5
138C
330
1365
100
AcDbEntity
  8
1660.241
100
AcDbVertex
100
AcDbPolyFaceMeshVertex
 10
-0.2481618896129209
 20
-0.4347921274600668
 30
3.940070629119928
 70
   192
  0
VERTEX
  5
138D
330
1365
100
AcDbEntity
  8
1660.241
100
AcDbVertex
100
AcDbPolyFaceMeshVertex
 10
-0.177309896797188
 20
-0.1144146735312534
 30
3.648091793060358
 70
   192
  0
VERTEX
  5
138E
330
1365
100
AcDbEntity
  8
1660.241
100
AcDbFaceRecord
 10
0.0
 20
0.0
 30
0.0
 70
   128
 71
   -34
 72
   -11
 73
   -31
  0
VERTEX
  5
138F
330
1365
100
AcDbEntity
  8
1660.241
100
AcDbFaceRecord
 10
0.0
 20
0.0
 30
0.0
 70
   128
 71
   -12
 72
   -31
 73
    11
  0
VERTEX
  5
1390
330
1365
100
AcDbEntity
  8
1660.241
100
AcDbFaceRecord
 10
0.0
 20
0.0
 30
0.0
 70
   128
 71
   -25
 72
   -30
 73
    24
  0
VERTEX
  5
1391
330
1365
100
AcDbEntity
  8
1660.241
100
AcDbFaceRecord
 10
0.0
 20
0.0
 30
0.0
 70
   128
 71
   -39
 72
   -29
 73
   -35
  0
VERTEX
  5
1392
330
1365
100
AcDbEntity
  8
1660.241
100
AcDbFaceRecord
 10
0.0
 20
0.0
 30
0.0
 70
   128
 71
    12
 72
    13
 73
   -31
  0
VERTEX
  5
1393
330
1365
100
AcDbEntity
  8
1660.241
100
AcDbFaceRecord
 10
0.0
 20
0.0
 30
0.0
 70
   128
 71
   -34
 72
     9
 73
   -10
  0
VERTEX
  5
1394
330
1365
100
AcDbEntity
  8
1660.241
100
AcDbFaceRecord
 10
0.0
 20
0.0
 30
0.0
 70
   128
 71
   -35
 72
   -40
 73
   -32
  0
VERTEX
  5
1395
330
1365
100
AcDbEntity
  8
1660.241
100
AcDbFaceRecord
 10
0.0
 20
0.0
 30
0.0
 70
   128
 71
   -33
 72
    -7
 73
   -34
  0
VERTEX
  5
1396
330
1365
100
AcDbEntity
  8
1660.241
100
AcDbFaceRecord
 10
0.0
 20
0.0
 30
0.0
 70
   128
 71
     7
 72
    -8
 73
   -34
  0
VERTEX
  5
1397
330
1365
100
AcDbEntity
  8
1660.241
100
AcDbFaceRecord
 10
0.0
 20
0.0
 30
0.0
 70
   128
 71
     8
 72
    -9
 73
   -34
  0
VERTEX
  5
1398
330
1365
100
AcDbEntity
  8
1660.241
100
AcDbFaceRecord
 10
0.0
 20
0.0
 30
0.0
 70
   128
 71
   -29
 72
   -40
 73
   -35
  0
VERTEX
  5
1399
330
1365
100
AcDbEntity
  8
1660.241
100
AcDbFaceRecord
 10
0.0
 20
0.0
 30
0.0
 70
   128
 71
    36
 72
     1
 73
    -2
  0
VERTEX
  5
139A
330
1365
100
AcDbEntity
  8
1660.241
100
AcDbFaceRecord
 10
0.0
 20
0.0
 30
0.0
 70
   128
 71
     5
 72
    -6
 73
   -33
  0
VERTEX
  5
139B
330
1365
100
AcDbEntity
  8
1660.241
100
AcDbFaceRecord
 10
0.0
 20
0.0
 30
0.0
 70
   128
 71
     4
 72
    -5
 73
   -33
  0
VERTEX
  5
139C
330
1365
100
AcDbEntity
  8
1660.241
100
AcDbFaceRecord
 10
0.0
 20
0.0
 30
0.0
 70
   128
 71
   -40
 72
    31
 73
   -14
  0
VERTEX
  5
139D
330
1365
100
AcDbEntity
  8
1660.241
100
AcDbFaceRecord
 10
0.0
 20
0.0
 30
0.0
 70
   128
 71
   -11
 72
   -34
 73
    10
  0
VERTEX
  5
139E
330
1365
100
AcDbEntity
  8
1660.241
100
AcDbFaceRecord
 10
0.0
 20
0.0
 30
0.0
 70
   128
 71
   -17
 72
   -35
 73
   -32
  0
VERTEX
  5
139F
330
1365
100
AcDbEntity
  8
1660.241
100
AcDbFaceRecord
 10
0.0
 20
0.0
 30
0.0
 70
   128
 71
   -36
 72
   -38
 73
    28
  0
VERTEX
  5
13A0
330
1365
100
AcDbEntity
  8
1660.241
100
AcDbFaceRecord
 10
0.0
 20
0.0
 30
0.0
 70
   128
 71
   -20
 72
   -39
 73
    19
  0
VERTEX
  5
13A1
330
1365
100
AcDbEntity
  8
1660.241
100
AcDbFaceRecord
 10
0.0
 20
0.0
 30
0.0
 70
   128
 71
    -4
 72
   -38
 73
     3
  0
VERTEX
  5
13A2
330
1365
100
AcDbEntity
  8
1660.241
100
AcDbFaceRecord
 10
0.0
 20
0.0
 30
0.0
 70
   128
 71
   -38
 72
     2
 73
    -3
  0
VERTEX
  5
13A3
330
1365
100
AcDbEntity
  8
1660.241
100
AcDbFaceRecord
 10
0.0
 20
0.0
 30
0.0
 70
   128
 71
   -38
 72
    -4
 73
   -33
  0
VERTEX
  5
13A4
330
1365
100
AcDbEntity
  8
1660.241
100
AcDbFaceRecord
 10
0.0
 20
0.0
 30
0.0
 70
   128
 71
    -7
 72
   -33
 73
     6
  0
VERTEX
  5
13A5
330
1365
100
AcDbEntity
  8
1660.241
100
AcDbFaceRecord
 10
0.0
 20
0.0
 30
0.0
 70
   128
 71
   -29
 72
   -34
 73
   -40
  0
VERTEX
  5
13A6
330
1365
100
AcDbEntity
  8
1660.241
100
AcDbFaceRecord
 10
0.0
 20
0.0
 30
0.0
 70
   128
 71
   -29
 72
   -33
 73
   -34
  0
VERTEX
  5
13A7
330
1365
100
AcDbEntity
  8
1660.241
100
AcDbFaceRecord
 10
0.0
 20
0.0
 30
0.0
 70
   128
 71
   -38
 72
   -30
 73
   -28
  0
VERTEX
  5
13A8
330
1365
100
AcDbEntity
  8
1660.241
100
AcDbFaceRecord
 10
0.0
 20
0.0
 30
0.0
 70
   128
 71
   -29
 72
   -30
 73
   -33
  0
VERTEX
  5
13A9
330
1365
100
AcDbEntity
  8
1660.241
100
AcDbFaceRecord
 10
0.0
 20
0.0
 30
0.0
 70
   128
 71
    20
 72
   -21
 73
   -39
  0
VERTEX
  5
13AA
330
1365
100
AcDbEntity
  8
1660.241
100
AcDbFaceRecord
 10
0.0
 20
0.0
 30
0.0
 70
   128
 71
   -39
 72
   -22
 73
   -30
  0
VERTEX
  5
13AB
330
1365
100
AcDbEntity
  8
1660.241
100
AcDbFaceRecord
 10
0.0
 20
0.0
 30
0.0
 70
   128
 71
   -19
 72
   -35
 73
    18
  0
VERTEX
  5
13AC
330
1365
100
AcDbEntity
  8
1660.241
100
AcDbFaceRecord
 10
0.0
 20
0.0
 30
0.0
 70
   128
 71
   -17
 72
   -32
 73
    16
  0
VERTEX
  5
13AD
330
1365
100
AcDbEntity
  8
1660.241
100
AcDbFaceRecord
 10
0.0
 20
0.0
 30
0.0
 70
   128
 71
    17
 72
   -18
 73
   -35
  0
VERTEX
  5
13AE
330
1365
100
AcDbEntity
  8
1660.241
100
AcDbFaceRecord
 10
0.0
 20
0.0
 30
0.0
 70
   128
 71
   -30
 72
    37
 73
   -28
  0
VERTEX
  5
13AF
330
1365
100
AcDbEntity
  8
1660.241
100
AcDbFaceRecord
 10
0.0
 20
0.0
 30
0.0
 70
   128
 71
   -30
 72
   -25
 73
   -37
  0
VERTEX
  5
13B0
330
1365
100
AcDbEntity
  8
1660.241
100
AcDbFaceRecord
 10
0.0
 20
0.0
 30
0.0
 70
   128
 71
   -30
 72
   -38
 73
   -33
  0
VERTEX
  5
13B1
330
1365
100
AcDbEntity
  8
1660.241
100
AcDbFaceRecord
 10
0.0
 20
0.0
 30
0.0
 70
   128
 71
   -38
 72
   -36
 73
    -2
  0
VERTEX
  5
13B2
330
1365
100
AcDbEntity
  8
1660.241
100
AcDbFaceRecord
 10
0.0
 20
0.0
 30
0.0
 70
   128
 71
   -32
 72
   -40
 73
    14
  0
VERTEX
  5
13B3
330
1365
100
AcDbEntity
  8
1660.241
100
AcDbFaceRecord
 10
0.0
 20
0.0
 30
0.0
 70
   128
 71
   -30
 72
    23
 73
   -24
  0
VERTEX
  5
13B4
330
1365
100
AcDbEntity
  8
1660.241
100
AcDbFaceRecord
 10
0.0
 20
0.0
 30
0.0
 70
   128
 71
   -39
 72
    21
 73
   -22
  0
VERTEX
  5
13B5
330
1365
100
AcDbEntity
  8
1660.241
100
AcDbFaceRecord
 10
0.0
 20
0.0
 30
0.0
 70
   128
 71
   -39
 72
   -30
 73
   -29
  0
VERTEX
  5
13B6
330
1365
100
AcDbEntity
  8
1660.241
100
AcDbFaceRecord
 10
0.0
 20
0.0
 30
0.0
 70
   128
 71
   -31
 72
   -40
 73
   -34
  0
VERTEX
  5
13B7
330
1365
100
AcDbEntity
  8
1660.241
100
AcDbFaceRecord
 10
0.0
 20
0.0
 30
0.0
 70
   128
 71
   -26
 72
   -37
 73
    25
  0
VERTEX
  5
13B8
330
1365
100
AcDbEntity
  8
1660.241
100
AcDbFaceRecord
 10
0.0
 20
0.0
 30
0.0
 70
   128
 71
   -23
 72
   -30
 73
    22
  0
VERTEX
  5
13B9
330
1365
100
AcDbEntity
  8
1660.241
100
AcDbFaceRecord
 10
0.0
 20
0.0
 30
0.0
 70
   128
 71
   -39
 72
   -35
 73
   -19
  0
VERTEX
  5
13BA
330
1365
100
AcDbEntity
  8
1660.241
100
AcDbFaceRecord
 10
0.0
 20
0.0
 30
0.0
 70
   128
 71
   -16
 72
    32
 73
    15
  0
VERTEX
  5
13BB
330
1365
100
AcDbEntity
  8
1660.241
100
AcDbFaceRecord
 10
0.0
 20
0.0
 30
0.0
 70
   128
 71
    26
 72
    27
 73
   -37
  0
SEQEND
  5
13BC
330
1365
100
AcDbEntity
  8
1660.241
  0
POLYLINE
  5
13BD
330
8DA
100
AcDbEntity
  8
1660.241
100
AcDbPolyFaceMesh
 66
     1
 10
0.0
 20
0.0
 30
0.0
 70
    64
 71
    39
 72
    44
1001
REVIT
1002
{
1070
     4
1000
6414
1002
}
1002
{
1070
     2
1000
-2001160
1002
}
  0
VERTEX
  5
13BE
330
13BD
100
AcDbEntity
  8
1660.241
100
AcDbVertex
100
AcDbPolyFaceMeshVertex
 10
0.0000000000000319
 20
0.1250000037254648
 30
2.815280020237024
 70
   192
  0
VERTEX
  5
13BF
330
13BD
100
AcDbEntity
  8
1660.241
100
AcDbVertex
100
AcDbPolyFaceMeshVertex
 10
0.0647047609088343
 20
0.1164814420046167
 30
2.815280020237024
 70
   192
  0
VERTEX
  5
13C0
330
13BD
100
AcDbEntity
  8
1660.241
100
AcDbVertex
100
AcDbPolyFaceMeshVertex
 10
0.125000003725044
 20
0.0915063433350878
 30
2.815280020237024
 70
   192
  0
VERTEX
  5
13C1
330
13BD
100
AcDbEntity
  8
1660.241
100
AcDbVertex
100
AcDbPolyFaceMeshVertex
 10
0.1767766959962767
 20
0.0517766922714071
 30
2.815280020237024
 70
   192
  0
VERTEX
  5
13C2
330
13BD
100
AcDbEntity
  8
1660.241
100
AcDbVertex
100
AcDbPolyFaceMeshVertex
 10
0.2165063470599573
 20
0.0000000000001745
 30
2.815280020237024
 70
   192
  0
VERTEX
  5
13C3
330
13BD
100
AcDbEntity
  8
1660.241
100
AcDbVertex
100
AcDbPolyFaceMeshVertex
 10
0.2414814457294863
 20
-0.0602952428160353
 30
2.815280020237024
 70
   192
  0
VERTEX
  5
13C4
330
13BD
100
AcDbEntity
  8
1660.241
100
AcDbVertex
100
AcDbPolyFaceMeshVertex
 10
0.2500000074503343
 20
-0.1250000037254857
 30
2.815280020237024
 70
   192
  0
VERTEX
  5
13C5
330
13BD
100
AcDbEntity
  8
1660.241
100
AcDbVertex
100
AcDbPolyFaceMeshVertex
 10
0.2414814457294863
 20
-0.1897047646341963
 30
2.815280020237024
 70
   192
  0
VERTEX
  5
13C6
330
13BD
100
AcDbEntity
  8
1660.241
100
AcDbVertex
100
AcDbPolyFaceMeshVertex
 10
0.2165063470599573
 20
-0.2500000074504061
 30
2.815280020237024
 70
   192
  0
VERTEX
  5
13C7
330
13BD
100
AcDbEntity
  8
1660.241
100
AcDbVertex
100
AcDbPolyFaceMeshVertex
 10
0.1767766959962767
 20
-0.3017766997216387
 30
2.815280020237024
 70
   192
  0
VERTEX
  5
13C8
330
13BD
100
AcDbEntity
  8
1660.241
100
AcDbVertex
100
AcDbPolyFaceMeshVertex
 10
0.125000003725044
 20
-0.3415063507853193
 30
2.815280020237024
 70
   192
  0
VERTEX
  5
13C9
330
13BD
100
AcDbEntity
  8
1660.241
100
AcDbVertex
100
AcDbPolyFaceMeshVertex
 10
0.0647047609088343
 20
-0.3664814494548483
 30
2.815280020237024
 70
   192
  0
VERTEX
  5
13CA
330
13BD
100
AcDbEntity
  8
1660.241
100
AcDbVertex
100
AcDbPolyFaceMeshVertex
 10
0.0000000000000312
 20
-0.3750000111756964
 30
2.815280020237024
 70
   192
  0
VERTEX
  5
13CB
330
13BD
100
AcDbEntity
  8
1660.241
100
AcDbVertex
100
AcDbPolyFaceMeshVertex
 10
0.000000000000038
 20
-0.5082108266649886
 30
3.48497593402868
 70
   192
  0
VERTEX
  5
13CC
330
13BD
100
AcDbEntity
  8
1660.241
100
AcDbVertex
100
AcDbPolyFaceMeshVertex
 10
0.0000000000000439
 20
-0.887563113123004
 30
4.05271697044378
 70
   192
  0
VERTEX
  5
13CD
330
13BD
100
AcDbEntity
  8
1660.241
100
AcDbVertex
100
AcDbPolyFaceMeshVertex
 10
0.0647047609088343
 20
-0.8815395869312926
 30
4.058740496635492
 70
   192
  0
VERTEX
  5
13CE
330
13BD
100
AcDbEntity
  8
1660.241
100
AcDbVertex
100
AcDbPolyFaceMeshVertex
 10
0.125000003725044
 20
-0.863879565149371
 30
4.076400518417413
 70
   192
  0
VERTEX
  5
13CF
330
13BD
100
AcDbEntity
  8
1660.241
100
AcDbVertex
100
AcDbPolyFaceMeshVertex
 10
0.1767766959962767
 20
-0.8357864208517712
 30
4.104493618011529
 70
   192
  0
VERTEX
  5
13D0
330
13BD
100
AcDbEntity
  8
1660.241
100
AcDbVertex
100
AcDbPolyFaceMeshVertex
 10
0.2165063470599573
 20
-0.7991748042402906
 30
4.141105413436944
 70
   192
  0
VERTEX
  5
13D1
330
13BD
100
AcDbEntity
  8
1660.241
100
AcDbVertex
100
AcDbPolyFaceMeshVertex
 10
0.2414814457294863
 20
-0.7565396167336149
 30
4.183740377426202
 70
   192
  0
VERTEX
  5
13D2
330
13BD
100
AcDbEntity
  8
1660.241
100
AcDbVertex
100
AcDbPolyFaceMeshVertex
 10
0.2500000074503343
 20
-0.7107864506540937
 30
4.22949349880224
 70
   192
  0
VERTEX
  5
13D3
330
13BD
100
AcDbEntity
  8
1660.241
100
AcDbVertex
100
AcDbPolyFaceMeshVertex
 10
0.2414814457294863
 20
-0.6650332845745725
 30
4.275246620178277
 70
   192
  0
VERTEX
  5
13D4
330
13BD
100
AcDbEntity
  8
1660.241
100
AcDbVertex
100
AcDbPolyFaceMeshVertex
 10
0.2165063470599573
 20
-0.6223980970678969
 30
4.317881941795404
 70
   192
  0
VERTEX
  5
13D5
330
13BD
100
AcDbEntity
  8
1660.241
100
AcDbVertex
100
AcDbPolyFaceMeshVertex
 10
0.1767766959962767
 20
-0.5857864357529326
 30
4.354493737220819
 70
   192
  0
VERTEX
  5
13D6
330
13BD
100
AcDbEntity
  8
1660.241
100
AcDbVertex
100
AcDbPolyFaceMeshVertex
 10
0.125000003725044
 20
-0.5576933361588164
 30
4.382586836814935
 70
   192
  0
VERTEX
  5
13D7
330
13BD
100
AcDbEntity
  8
1660.241
100
AcDbVertex
100
AcDbPolyFaceMeshVertex
 10
0.0647047609088343
 20
-0.5400332696734114
 30
4.400246858596856
 70
   192
  0
VERTEX
  5
13D8
330
13BD
100
AcDbEntity
  8
1660.241
100
AcDbVertex
100
AcDbPolyFaceMeshVertex
 10
0.0000000000000482
 20
-0.5340097434817
 30
4.406270384788568
 70
   192
  0
VERTEX
  5
13D9
330
13BD
100
AcDbEntity
  8
1660.241
100
AcDbVertex
100
AcDbPolyFaceMeshVertex
 10
0.0000000000000407
 20
-0.0462710559366388
 30
3.676317930221613
 70
   192
  0
VERTEX
  5
13DA
330
13BD
100
AcDbEntity
  8
1660.241
100
AcDbVertex
100
AcDbPolyFaceMeshVertex
 10
0.2499416694042604
 20
-0.282230313867156
 30
3.578580379486139
 70
   192
  0
VERTEX
  5
13DB
330
13BD
100
AcDbEntity
  8
1660.241
100
AcDbVertex
100
AcDbPolyFaceMeshVertex
 10
0.1857491768894117
 20
-0.242512129247014
 30
3.889306068420465
 70
   192
  0
VERTEX
  5
13DC
330
13BD
100
AcDbEntity
  8
1660.241
100
AcDbVertex
100
AcDbPolyFaceMeshVertex
 10
0.1662391349670809
 20
-0.3825544305143995
 30
3.31714260578161
 70
   192
  0
VERTEX
  5
13DD
330
13BD
100
AcDbEntity
  8
1660.241
100
AcDbVertex
100
AcDbPolyFaceMeshVertex
 10
0.0000000000000369
 20
0.0280804038049536
 30
3.302527785301264
 70
   192
  0
VERTEX
  5
13DE
330
13BD
100
AcDbEntity
  8
1660.241
100
AcDbVertex
100
AcDbPolyFaceMeshVertex
 10
0.186184052377693
 20
-0.0299636162815733
 30
3.36846792697912
 70
   192
  0
VERTEX
  5
13DF
330
13BD
100
AcDbEntity
  8
1660.241
100
AcDbVertex
100
AcDbPolyFaceMeshVertex
 10
0.2078024446961801
 20
-0.5296063609419508
 30
3.773443937301691
 70
   192
  0
VERTEX
  5
13E0
330
13BD
100
AcDbEntity
  8
1660.241
100
AcDbVertex
100
AcDbPolyFaceMeshVertex
 10
0.000000000000044
 20
-0.2580060996113462
 30
3.993201613426263
 70
   192
  0
VERTEX
  5
13E1
330
13BD
100
AcDbEntity
  8
1660.241
100
AcDbVertex
100
AcDbPolyFaceMeshVertex
 10
0.2492603883144777
 20
-0.181654298677866
 30
3.198571085929926
 70
   192
  0
VERTEX
  5
13E2
330
13BD
100
AcDbEntity
  8
1660.241
100
AcDbVertex
100
AcDbPolyFaceMeshVertex
 10
0.0000000000000337
 20
-0.4234597943721457
 30
3.058903813362177
 70
   192
  0
VERTEX
  5
13E3
330
13BD
100
AcDbEntity
  8
1660.241
100
AcDbVertex
100
AcDbPolyFaceMeshVertex
 10
0.0000000000000418
 20
-0.7495613135395688
 30
3.846182584762628
 70
   192
  0
VERTEX
  5
13E4
330
13BD
100
AcDbEntity
  8
1660.241
100
AcDbVertex
100
AcDbPolyFaceMeshVertex
 10
0.2499280348417681
 20
-0.467553991824214
 30
3.923844695091302
 70
   192
  0
VERTEX
  5
13E5
330
13BD
100
AcDbEntity
  8
1660.241
100
AcDbFaceRecord
 10
0.0
 20
0.0
 30
0.0
 70
   128
 71
   -33
 72
     4
 73
    -5
  0
VERTEX
  5
13E6
330
13BD
100
AcDbEntity
  8
1660.241
100
AcDbFaceRecord
 10
0.0
 20
0.0
 30
0.0
 70
   128
 71
   -33
 72
   -30
 73
   -28
  0
VERTEX
  5
13E7
330
13BD
100
AcDbEntity
  8
1660.241
100
AcDbFaceRecord
 10
0.0
 20
0.0
 30
0.0
 70
   128
 71
   -36
 72
     7
 73
    -8
  0
VERTEX
  5
13E8
330
13BD
100
AcDbEntity
  8
1660.241
100
AcDbFaceRecord
 10
0.0
 20
0.0
 30
0.0
 70
   128
 71
   -33
 72
    -6
 73
   -36
  0
VERTEX
  5
13E9
330
13BD
100
AcDbEntity
  8
1660.241
100
AcDbFaceRecord
 10
0.0
 20
0.0
 30
0.0
 70
   128
 71
   -14
 72
   -31
 73
    37
  0
VERTEX
  5
13EA
330
13BD
100
AcDbEntity
  8
1660.241
100
AcDbFaceRecord
 10
0.0
 20
0.0
 30
0.0
 70
   128
 71
   -25
 72
   -30
 73
    24
  0
VERTEX
  5
13EB
330
13BD
100
AcDbEntity
  8
1660.241
100
AcDbFaceRecord
 10
0.0
 20
0.0
 30
0.0
 70
   128
 71
    10
 72
   -11
 73
   -31
  0
VERTEX
  5
13EC
330
13BD
100
AcDbEntity
  8
1660.241
100
AcDbFaceRecord
 10
0.0
 20
0.0
 30
0.0
 70
   128
 71
   -31
 72
   -36
 73
    -9
  0
VERTEX
  5
13ED
330
13BD
100
AcDbEntity
  8
1660.241
100
AcDbFaceRecord
 10
0.0
 20
0.0
 30
0.0
 70
   128
 71
    11
 72
   -12
 73
   -37
  0
VERTEX
  5
13EE
330
13BD
100
AcDbEntity
  8
1660.241
100
AcDbFaceRecord
 10
0.0
 20
0.0
 30
0.0
 70
   128
 71
    38
 72
    15
 73
   -16
  0
VERTEX
  5
13EF
330
13BD
100
AcDbEntity
  8
1660.241
100
AcDbFaceRecord
 10
0.0
 20
0.0
 30
0.0
 70
   128
 71
   -31
 72
   -14
 73
   -34
  0
VERTEX
  5
13F0
330
13BD
100
AcDbEntity
  8
1660.241
100
AcDbFaceRecord
 10
0.0
 20
0.0
 30
0.0
 70
   128
 71
   -31
 72
     9
 73
   -10
  0
VERTEX
  5
13F1
330
13BD
100
AcDbEntity
  8
1660.241
100
AcDbFaceRecord
 10
0.0
 20
0.0
 30
0.0
 70
   128
 71
     3
 72
    -4
 73
   -33
  0
VERTEX
  5
13F2
330
13BD
100
AcDbEntity
  8
1660.241
100
AcDbFaceRecord
 10
0.0
 20
0.0
 30
0.0
 70
   128
 71
   -33
 72
   -32
 73
    -3
  0
VERTEX
  5
13F3
330
13BD
100
AcDbEntity
  8
1660.241
100
AcDbFaceRecord
 10
0.0
 20
0.0
 30
0.0
 70
   128
 71
   -29
 72
   -30
 73
   -33
  0
VERTEX
  5
13F4
330
13BD
100
AcDbEntity
  8
1660.241
100
AcDbFaceRecord
 10
0.0
 20
0.0
 30
0.0
 70
   128
 71
    26
 72
    27
 73
   -35
  0
VERTEX
  5
13F5
330
13BD
100
AcDbEntity
  8
1660.241
100
AcDbFaceRecord
 10
0.0
 20
0.0
 30
0.0
 70
   128
 71
    -3
 72
   -32
 73
     2
  0
VERTEX
  5
13F6
330
13BD
100
AcDbEntity
  8
1660.241
100
AcDbFaceRecord
 10
0.0
 20
0.0
 30
0.0
 70
   128
 71
   -33
 72
     5
 73
    -6
  0
VERTEX
  5
13F7
330
13BD
100
AcDbEntity
  8
1660.241
100
AcDbFaceRecord
 10
0.0
 20
0.0
 30
0.0
 70
   128
 71
     6
 72
    -7
 73
   -36
  0
VERTEX
  5
13F8
330
13BD
100
AcDbEntity
  8
1660.241
100
AcDbFaceRecord
 10
0.0
 20
0.0
 30
0.0
 70
   128
 71
    12
 72
    13
 73
   -37
  0
VERTEX
  5
13F9
330
13BD
100
AcDbEntity
  8
1660.241
100
AcDbFaceRecord
 10
0.0
 20
0.0
 30
0.0
 70
   128
 71
   -38
 72
   -17
 73
   -34
  0
VERTEX
  5
13FA
330
13BD
100
AcDbEntity
  8
1660.241
100
AcDbFaceRecord
 10
0.0
 20
0.0
 30
0.0
 70
   128
 71
   -37
 72
   -31
 73
   -11
  0
VERTEX
  5
13FB
330
13BD
100
AcDbEntity
  8
1660.241
100
AcDbFaceRecord
 10
0.0
 20
0.0
 30
0.0
 70
   128
 71
    14
 72
   -38
 73
   -34
  0
VERTEX
  5
13FC
330
13BD
100
AcDbEntity
  8
1660.241
100
AcDbFaceRecord
 10
0.0
 20
0.0
 30
0.0
 70
   128
 71
   -39
 72
    21
 73
   -22
  0
VERTEX
  5
13FD
330
13BD
100
AcDbEntity
  8
1660.241
100
AcDbFaceRecord
 10
0.0
 20
0.0
 30
0.0
 70
   128
 71
    -2
 72
    32
 73
     1
  0
VERTEX
  5
13FE
330
13BD
100
AcDbEntity
  8
1660.241
100
AcDbFaceRecord
 10
0.0
 20
0.0
 30
0.0
 70
   128
 71
   -38
 72
    16
 73
   -17
  0
VERTEX
  5
13FF
330
13BD
100
AcDbEntity
  8
1660.241
100
AcDbFaceRecord
 10
0.0
 20
0.0
 30
0.0
 70
   128
 71
   -34
 72
    17
 73
   -18
  0
VERTEX
  5
1400
330
13BD
100
AcDbEntity
  8
1660.241
100
AcDbFaceRecord
 10
0.0
 20
0.0
 30
0.0
 70
   128
 71
   -39
 72
   -22
 73
   -30
  0
VERTEX
  5
1401
330
13BD
100
AcDbEntity
  8
1660.241
100
AcDbFaceRecord
 10
0.0
 20
0.0
 30
0.0
 70
   128
 71
   -21
 72
   -39
 73
    20
  0
VERTEX
  5
1402
330
13BD
100
AcDbEntity
  8
1660.241
100
AcDbFaceRecord
 10
0.0
 20
0.0
 30
0.0
 70
   128
 71
   -29
 72
   -36
 73
   -31
  0
VERTEX
  5
1403
330
13BD
100
AcDbEntity
  8
1660.241
100
AcDbFaceRecord
 10
0.0
 20
0.0
 30
0.0
 70
   128
 71
   -32
 72
   -33
 73
    28
  0
VERTEX
  5
1404
330
13BD
100
AcDbEntity
  8
1660.241
100
AcDbFaceRecord
 10
0.0
 20
0.0
 30
0.0
 70
   128
 71
    19
 72
   -20
 73
   -39
  0
VERTEX
  5
1405
330
13BD
100
AcDbEntity
  8
1660.241
100
AcDbFaceRecord
 10
0.0
 20
0.0
 30
0.0
 70
   128
 71
   -29
 72
   -31
 73
   -34
  0
VERTEX
  5
1406
330
13BD
100
AcDbEntity
  8
1660.241
100
AcDbFaceRecord
 10
0.0
 20
0.0
 30
0.0
 70
   128
 71
   -29
 72
   -34
 73
   -39
  0
VERTEX
  5
1407
330
13BD
100
AcDbEntity
  8
1660.241
100
AcDbFaceRecord
 10
0.0
 20
0.0
 30
0.0
 70
   128
 71
    23
 72
   -24
 73
   -30
  0
VERTEX
  5
1408
330
13BD
100
AcDbEntity
  8
1660.241
100
AcDbFaceRecord
 10
0.0
 20
0.0
 30
0.0
 70
   128
 71
   -35
 72
   -30
 73
   -25
  0
VERTEX
  5
1409
330
13BD
100
AcDbEntity
  8
1660.241
100
AcDbFaceRecord
 10
0.0
 20
0.0
 30
0.0
 70
   128
 71
   -33
 72
   -36
 73
   -29
  0
VERTEX
  5
140A
330
13BD
100
AcDbEntity
  8
1660.241
100
AcDbFaceRecord
 10
0.0
 20
0.0
 30
0.0
 70
   128
 71
   -29
 72
   -39
 73
   -30
  0
VERTEX
  5
140B
330
13BD
100
AcDbEntity
  8
1660.241
100
AcDbFaceRecord
 10
0.0
 20
0.0
 30
0.0
 70
   128
 71
   -36
 72
     8
 73
    -9
  0
VERTEX
  5
140C
330
13BD
100
AcDbEntity
  8
1660.241
100
AcDbFaceRecord
 10
0.0
 20
0.0
 30
0.0
 70
   128
 71
   -28
 72
   -30
 73
    35
  0
VERTEX
  5
140D
330
13BD
100
AcDbEntity
  8
1660.241
100
AcDbFaceRecord
 10
0.0
 20
0.0
 30
0.0
 70
   128
 71
   -26
 72
   -35
 73
    25
  0
VERTEX
  5
140E
330
13BD
100
AcDbEntity
  8
1660.241
100
AcDbFaceRecord
 10
0.0
 20
0.0
 30
0.0
 70
   128
 71
   -39
 72
   -34
 73
   -19
  0
VERTEX
  5
140F
330
13BD
100
AcDbEntity
  8
1660.241
100
AcDbFaceRecord
 10
0.0
 20
0.0
 30
0.0
 70
   128
 71
   -23
 72
   -30
 73
    22
  0
VERTEX
  5
1410
330
13BD
100
AcDbEntity
  8
1660.241
100
AcDbFaceRecord
 10
0.0
 20
0.0
 30
0.0
 70
   128
 71
   -34
 72
    18
 73
   -19
  0
SEQEND
  5
1411
330
13BD
100
AcDbEntity
  8
1660.241
  0
POLYLINE
  5
1412
330
8DA
100
AcDbEntity
  8
1660.241
100
AcDbPolyFaceMesh
 66
     1
 10
0.0
 20
0.0
 30
0.0
 70
    64
 71
    26
 72
    20
1001
REVIT
1002
{
1070
     4
1000
6414
1002
}
1002
{
1070
     2
1000
-2001160
1002
}
  0
VERTEX
  5
1413
330
1412
100
AcDbEntity
  8
1660.241
100
AcDbVertex
100
AcDbPolyFaceMeshVertex
 10
0.0000000000000614
 20
-1.804516140371386
 30
5.676776647567804
 70
   192
  0
VERTEX
  5
1414
330
1412
100
AcDbEntity
  8
1660.241
100
AcDbVertex
100
AcDbPolyFaceMeshVertex
 10
-0.0647047609093267
 20
-1.810539666563097
 30
5.670753121376092
 70
   192
  0
VERTEX
  5
1415
330
1412
100
AcDbEntity
  8
1660.241
100
AcDbVertex
100
AcDbPolyFaceMeshVertex
 10
-0.1250000037255365
 20
-1.828199688345019
 30
5.653093099594171
 70
   192
  0
VERTEX
  5
1416
330
1412
100
AcDbEntity
  8
1660.241
100
AcDbVertex
100
AcDbPolyFaceMeshVertex
 10
-0.1767766959967691
 20
-1.856292787939135
 30
5.625000000000055
 70
   192
  0
VERTEX
  5
1417
330
1412
100
AcDbEntity
  8
1660.241
100
AcDbVertex
100
AcDbPolyFaceMeshVertex
 10
-0.2165063470604497
 20
-1.892904404550616
 30
5.58838820457464
 70
   192
  0
VERTEX
  5
1418
330
1412
100
AcDbEntity
  8
1660.241
100
AcDbVertex
100
AcDbPolyFaceMeshVertex
 10
-0.2414814457299787
 20
-1.935539726167742
 30
5.545753240585382
 70
   192
  0
VERTEX
  5
1419
330
1412
100
AcDbEntity
  8
1660.241
100
AcDbVertex
100
AcDbPolyFaceMeshVertex
 10
-0.2500000074508267
 20
-1.98129284754378
 30
5.500000119209344
 70
   192
  0
VERTEX
  5
141A
330
1412
100
AcDbEntity
  8
1660.241
100
AcDbVertex
100
AcDbPolyFaceMeshVertex
 10
-0.2414814457299787
 20
-2.027045968919817
 30
5.454246997833307
 70
   192
  0
VERTEX
  5
141B
330
1412
100
AcDbEntity
  8
1660.241
100
AcDbVertex
100
AcDbPolyFaceMeshVertex
 10
-0.2165063470604497
 20
-2.06968111172301
 30
5.41161167621618
 70
   192
  0
VERTEX
  5
141C
330
1412
100
AcDbEntity
  8
1660.241
100
AcDbVertex
100
AcDbPolyFaceMeshVertex
 10
-0.1767766959967691
 20
-2.106292907148425
 30
5.374999880790765
 70
   192
  0
VERTEX
  5
141D
330
1412
100
AcDbEntity
  8
1660.241
100
AcDbVertex
100
AcDbPolyFaceMeshVertex
 10
-0.1250000037255365
 20
-2.13438600674254
 30
5.346906781196649
 70
   192
  0
VERTEX
  5
141E
330
1412
100
AcDbEntity
  8
1660.241
100
AcDbVertex
100
AcDbPolyFaceMeshVertex
 10
-0.0647047609093267
 20
-2.152046028524462
 30
5.329246759414727
 70
   192
  0
VERTEX
  5
141F
330
1412
100
AcDbEntity
  8
1660.241
100
AcDbVertex
100
AcDbPolyFaceMeshVertex
 10
0.0000000000000553
 20
-2.158069554716173
 30
5.323223233223016
 70
   192
  0
VERTEX
  5
1420
330
1412
100
AcDbEntity
  8
1660.241
100
AcDbVertex
100
AcDbPolyFaceMeshVertex
 10
0.0000000000000409
 20
-0.887563113123004
 30
4.05271697044378
 70
   192
  0
VERTEX
  5
1421
330
1412
100
AcDbEntity
  8
1660.241
100
AcDbVertex
100
AcDbPolyFaceMeshVertex
 10
-0.0647047609093267
 20
-0.8815395869312926
 30
4.058740496635492
 70
   192
  0
VERTEX
  5
1422
330
1412
100
AcDbEntity
  8
1660.241
100
AcDbVertex
100
AcDbPolyFaceMeshVertex
 10
-0.1250000037255365
 20
-0.863879565149371
 30
4.076400518417413
 70
   192
  0
VERTEX
  5
1423
330
1412
100
AcDbEntity
  8
1660.241
100
AcDbVertex
100
AcDbPolyFaceMeshVertex
 10
-0.1767766959967691
 20
-0.8357864208517712
 30
4.104493618011529
 70
   192
  0
VERTEX
  5
1424
330
1412
100
AcDbEntity
  8
1660.241
100
AcDbVertex
100
AcDbPolyFaceMeshVertex
 10
-0.2165063470604497
 20
-0.7991748042402906
 30
4.141105413436944
 70
   192
  0
VERTEX
  5
1425
330
1412
100
AcDbEntity
  8
1660.241
100
AcDbVertex
100
AcDbPolyFaceMeshVertex
 10
-0.2414814457299787
 20
-0.7565396167336149
 30
4.183740377426202
 70
   192
  0
VERTEX
  5
1426
330
1412
100
AcDbEntity
  8
1660.241
100
AcDbVertex
100
AcDbPolyFaceMeshVertex
 10
-0.2500000074508267
 20
-0.7107864506540937
 30
4.22949349880224
 70
   192
  0
VERTEX
  5
1427
330
1412
100
AcDbEntity
  8
1660.241
100
AcDbVertex
100
AcDbPolyFaceMeshVertex
 10
-0.2414814457299787
 20
-0.6650332845745725
 30
4.275246620178277
 70
   192
  0
VERTEX
  5
1428
330
1412
100
AcDbEntity
  8
1660.241
100
AcDbVertex
100
AcDbPolyFaceMeshVertex
 10
-0.2165063470604497
 20
-0.6223980970678969
 30
4.317881941795404
 70
   192
  0
VERTEX
  5
1429
330
1412
100
AcDbEntity
  8
1660.241
100
AcDbVertex
100
AcDbPolyFaceMeshVertex
 10
-0.1767766959967691
 20
-0.5857864357529326
 30
4.354493737220819
 70
   192
  0
VERTEX
  5
142A
330
1412
100
AcDbEntity
  8
1660.241
100
AcDbVertex
100
AcDbPolyFaceMeshVertex
 10
-0.1250000037255365
 20
-0.5576933361588164
 30
4.382586836814935
 70
   192
  0
VERTEX
  5
142B
330
1412
100
AcDbEntity
  8
1660.241
100
AcDbVertex
100
AcDbPolyFaceMeshVertex
 10
-0.0647047609093267
 20
-0.5400332696734114
 30
4.400246858596856
 70
   192
  0
VERTEX
  5
142C
330
1412
100
AcDbEntity
  8
1660.241
100
AcDbVertex
100
AcDbPolyFaceMeshVertex
 10
0.0000000000000482
 20
-0.5340097434817
 30
4.406270384788568
 70
   192
  0
VERTEX
  5
142D
330
1412
100
AcDbEntity
  8
1660.241
100
AcDbFaceRecord
 10
0.0
 20
0.0
 30
0.0
 70
   128
 71
    -2
 72
    25
 73
    26
 74
     1
  0
VERTEX
  5
142E
330
1412
100
AcDbEntity
  8
1660.241
100
AcDbFaceRecord
 10
0.0
 20
0.0
 30
0.0
 70
   128
 71
   -25
 72
    -3
 73
    24
  0
VERTEX
  5
142F
330
1412
100
AcDbEntity
  8
1660.241
100
AcDbFaceRecord
 10
0.0
 20
0.0
 30
0.0
 70
   128
 71
    22
 72
   -23
 73
    -5
  0
VERTEX
  5
1430
330
1412
100
AcDbEntity
  8
1660.241
100
AcDbFaceRecord
 10
0.0
 20
0.0
 30
0.0
 70
   128
 71
    -4
 72
    23
 73
   -24
 74
     3
  0
VERTEX
  5
1431
330
1412
100
AcDbEntity
  8
1660.241
100
AcDbFaceRecord
 10
0.0
 20
0.0
 30
0.0
 70
   128
 71
    21
 72
   -22
 73
    -6
  0
VERTEX
  5
1432
330
1412
100
AcDbEntity
  8
1660.241
100
AcDbFaceRecord
 10
0.0
 20
0.0
 30
0.0
 70
   128
 71
     2
 72
    -3
 73
   -25
  0
VERTEX
  5
1433
330
1412
100
AcDbEntity
  8
1660.241
100
AcDbFaceRecord
 10
0.0
 20
0.0
 30
0.0
 70
   128
 71
   -23
 72
     4
 73
    -5
  0
VERTEX
  5
1434
330
1412
100
AcDbEntity
  8
1660.241
100
AcDbFaceRecord
 10
0.0
 20
0.0
 30
0.0
 70
   128
 71
   -22
 72
     5
 73
    -6
  0
VERTEX
  5
1435
330
1412
100
AcDbEntity
  8
1660.241
100
AcDbFaceRecord
 10
0.0
 20
0.0
 30
0.0
 70
   128
 71
     6
 72
    -7
 73
   -21
  0
VERTEX
  5
1436
330
1412
100
AcDbEntity
  8
1660.241
100
AcDbFaceRecord
 10
0.0
 20
0.0
 30
0.0
 70
   128
 71
    -7
 72
    20
 73
   -21
  0
VERTEX
  5
1437
330
1412
100
AcDbEntity
  8
1660.241
100
AcDbFaceRecord
 10
0.0
 20
0.0
 30
0.0
 70
   128
 71
    -8
 72
    19
 73
   -20
  0
VERTEX
  5
1438
330
1412
100
AcDbEntity
  8
1660.241
100
AcDbFaceRecord
 10
0.0
 20
0.0
 30
0.0
 70
   128
 71
    15
 72
   -16
 73
    11
 74
   -12
  0
VERTEX
  5
1439
330
1412
100
AcDbEntity
  8
1660.241
100
AcDbFaceRecord
 10
0.0
 20
0.0
 30
0.0
 70
   128
 71
   -17
 72
   -10
 73
    16
  0
VERTEX
  5
143A
330
1412
100
AcDbEntity
  8
1660.241
100
AcDbFaceRecord
 10
0.0
 20
0.0
 30
0.0
 70
   128
 71
    14
 72
   -15
 73
    12
 74
    13
  0
VERTEX
  5
143B
330
1412
100
AcDbEntity
  8
1660.241
100
AcDbFaceRecord
 10
0.0
 20
0.0
 30
0.0
 70
   128
 71
    -9
 72
   -18
 73
     8
  0
VERTEX
  5
143C
330
1412
100
AcDbEntity
  8
1660.241
100
AcDbFaceRecord
 10
0.0
 20
0.0
 30
0.0
 70
   128
 71
   -19
 72
    -8
 73
    18
  0
VERTEX
  5
143D
330
1412
100
AcDbEntity
  8
1660.241
100
AcDbFaceRecord
 10
0.0
 20
0.0
 30
0.0
 70
   128
 71
   -10
 72
   -18
 73
     9
  0
VERTEX
  5
143E
330
1412
100
AcDbEntity
  8
1660.241
100
AcDbFaceRecord
 10
0.0
 20
0.0
 30
0.0
 70
   128
 71
    17
 72
   -18
 73
   -10
  0
VERTEX
  5
143F
330
1412
100
AcDbEntity
  8
1660.241
100
AcDbFaceRecord
 10
0.0
 20
0.0
 30
0.0
 70
   128
 71
    10
 72
   -11
 73
   -16
  0
VERTEX
  5
1440
330
1412
100
AcDbEntity
  8
1660.241
100
AcDbFaceRecord
 10
0.0
 20
0.0
 30
0.0
 70
   128
 71
     7
 72
    -8
 73
   -20
  0
SEQEND
  5
1441
330
1412
100
AcDbEntity
  8
1660.241
  0
POLYLINE
  5
1442
330
8DA
100
AcDbEntity
  8
1660.241
100
AcDbPolyFaceMesh
 66
     1
 10
0.0
 20
0.0
 30
0.0
 70
    64
 71
    26
 72
    20
1001
REVIT
1002
{
1070
     4
1000
6414
1002
}
1002
{
1070
     2
1000
-2001160
1002
}
  0
VERTEX
  5
1443
330
1442
100
AcDbEntity
  8
1660.241
100
AcDbVertex
100
AcDbPolyFaceMeshVertex
 10
0.0000000000000569
 20
-2.158069554716173
 30
5.323223233223016
 70
   192
  0
VERTEX
  5
1444
330
1442
100
AcDbEntity
  8
1660.241
100
AcDbVertex
100
AcDbPolyFaceMeshVertex
 10
0.0647047609088343
 20
-2.152046028524462
 30
5.329246759414727
 70
   192
  0
VERTEX
  5
1445
330
1442
100
AcDbEntity
  8
1660.241
100
AcDbVertex
100
AcDbPolyFaceMeshVertex
 10
0.125000003725044
 20
-2.13438600674254
 30
5.346906781196649
 70
   192
  0
VERTEX
  5
1446
330
1442
100
AcDbEntity
  8
1660.241
100
AcDbVertex
100
AcDbPolyFaceMeshVertex
 10
0.1767766959962767
 20
-2.106292907148425
 30
5.374999880790765
 70
   192
  0
VERTEX
  5
1447
330
1442
100
AcDbEntity
  8
1660.241
100
AcDbVertex
100
AcDbPolyFaceMeshVertex
 10
0.2165063470599573
 20
-2.06968111172301
 30
5.41161167621618
 70
   192
  0
VERTEX
  5
1448
330
1442
100
AcDbEntity
  8
1660.241
100
AcDbVertex
100
AcDbPolyFaceMeshVertex
 10
0.2414814457294863
 20
-2.027045968919817
 30
5.454246997833307
 70
   192
  0
VERTEX
  5
1449
330
1442
100
AcDbEntity
  8
1660.241
100
AcDbVertex
100
AcDbPolyFaceMeshVertex
 10
0.2500000074503343
 20
-1.98129284754378
 30
5.500000119209344
 70
   192
  0
VERTEX
  5
144A
330
1442
100
AcDbEntity
  8
1660.241
100
AcDbVertex
100
AcDbPolyFaceMeshVertex
 10
0.2414814457294863
 20
-1.935539726167742
 30
5.545753240585382
 70
   192
  0
VERTEX
  5
144B
330
1442
100
AcDbEntity
  8
1660.241
100
AcDbVertex
100
AcDbPolyFaceMeshVertex
 10
0.2165063470599573
 20
-1.892904404550616
 30
5.58838820457464
 70
   192
  0
VERTEX
  5
144C
330
1442
100
AcDbEntity
  8
1660.241
100
AcDbVertex
100
AcDbPolyFaceMeshVertex
 10
0.1767766959962767
 20
-1.856292787939135
 30
5.625000000000055
 70
   192
  0
VERTEX
  5
144D
330
1442
100
AcDbEntity
  8
1660.241
100
AcDbVertex
100
AcDbPolyFaceMeshVertex
 10
0.125000003725044
 20
-1.828199688345019
 30
5.653093099594171
 70
   192
  0
VERTEX
  5
144E
330
1442
100
AcDbEntity
  8
1660.241
100
AcDbVertex
100
AcDbPolyFaceMeshVertex
 10
0.0647047609088343
 20
-1.810539666563097
 30
5.670753121376092
 70
   192
  0
VERTEX
  5
144F
330
1442
100
AcDbEntity
  8
1660.241
100
AcDbVertex
100
AcDbPolyFaceMeshVertex
 10
0.0000000000000613
 20
-1.804516140371386
 30
5.676776647567804
 70
   192
  0
VERTEX
  5
1450
330
1442
100
AcDbEntity
  8
1660.241
100
AcDbVertex
100
AcDbPolyFaceMeshVertex
 10
0.0000000000000482
 20
-0.5340097434817
 30
4.406270384788568
 70
   192
  0
VERTEX
  5
1451
330
1442
100
AcDbEntity
  8
1660.241
100
AcDbVertex
100
AcDbPolyFaceMeshVertex
 10
0.0647047609088343
 20
-0.5400332696734114
 30
4.400246858596856
 70
   192
  0
VERTEX
  5
1452
330
1442
100
AcDbEntity
  8
1660.241
100
AcDbVertex
100
AcDbPolyFaceMeshVertex
 10
0.125000003725044
 20
-0.5576933361588164
 30
4.382586836814935
 70
   192
  0
VERTEX
  5
1453
330
1442
100
AcDbEntity
  8
1660.241
100
AcDbVertex
100
AcDbPolyFaceMeshVertex
 10
0.1767766959962767
 20
-0.5857864357529326
 30
4.354493737220819
 70
   192
  0
VERTEX
  5
1454
330
1442
100
AcDbEntity
  8
1660.241
100
AcDbVertex
100
AcDbPolyFaceMeshVertex
 10
0.2165063470599573
 20
-0.6223980970678969
 30
4.317881941795404
 70
   192
  0
VERTEX
  5
1455
330
1442
100
AcDbEntity
  8
1660.241
100
AcDbVertex
100
AcDbPolyFaceMeshVertex
 10
0.2414814457294863
 20
-0.6650332845745725
 30
4.275246620178277
 70
   192
  0
VERTEX
  5
1456
330
1442
100
AcDbEntity
  8
1660.241
100
AcDbVertex
100
AcDbPolyFaceMeshVertex
 10
0.2500000074503343
 20
-0.7107864506540937
 30
4.22949349880224
 70
   192
  0
VERTEX
  5
1457
330
1442
100
AcDbEntity
  8
1660.241
100
AcDbVertex
100
AcDbPolyFaceMeshVertex
 10
0.2414814457294863
 20
-0.7565396167336149
 30
4.183740377426202
 70
   192
  0
VERTEX
  5
1458
330
1442
100
AcDbEntity
  8
1660.241
100
AcDbVertex
100
AcDbPolyFaceMeshVertex
 10
0.2165063470599573
 20
-0.7991748042402906
 30
4.141105413436944
 70
   192
  0
VERTEX
  5
1459
330
1442
100
AcDbEntity
  8
1660.241
100
AcDbVertex
100
AcDbPolyFaceMeshVertex
 10
0.1767766959962767
 20
-0.8357864208517712
 30
4.104493618011529
 70
   192
  0
VERTEX
  5
145A
330
1442
100
AcDbEntity
  8
1660.241
100
AcDbVertex
100
AcDbPolyFaceMeshVertex
 10
0.125000003725044
 20
-0.863879565149371
 30
4.076400518417413
 70
   192
  0
VERTEX
  5
145B
330
1442
100
AcDbEntity
  8
1660.241
100
AcDbVertex
100
AcDbPolyFaceMeshVertex
 10
0.0647047609088343
 20
-0.8815395869312926
 30
4.058740496635492
 70
   192
  0
VERTEX
  5
145C
330
1442
100
AcDbEntity
  8
1660.241
100
AcDbVertex
100
AcDbPolyFaceMeshVertex
 10
0.0000000000000439
 20
-0.887563113123004
 30
4.05271697044378
 70
   192
  0
VERTEX
  5
145D
330
1442
100
AcDbEntity
  8
1660.241
100
AcDbFaceRecord
 10
0.0
 20
0.0
 30
0.0
 70
   128
 71
    -2
 72
    25
 73
    26
 74
     1
  0
VERTEX
  5
145E
330
1442
100
AcDbEntity
  8
1660.241
100
AcDbFaceRecord
 10
0.0
 20
0.0
 30
0.0
 70
   128
 71
    -3
 72
    24
 73
   -25
 74
     2
  0
VERTEX
  5
145F
330
1442
100
AcDbEntity
  8
1660.241
100
AcDbFaceRecord
 10
0.0
 20
0.0
 30
0.0
 70
   128
 71
    22
 72
   -23
 73
    -5
  0
VERTEX
  5
1460
330
1442
100
AcDbEntity
  8
1660.241
100
AcDbFaceRecord
 10
0.0
 20
0.0
 30
0.0
 70
   128
 71
    -4
 72
    23
 73
   -24
  0
VERTEX
  5
1461
330
1442
100
AcDbEntity
  8
1660.241
100
AcDbFaceRecord
 10
0.0
 20
0.0
 30
0.0
 70
   128
 71
    21
 72
   -22
 73
    -6
  0
VERTEX
  5
1462
330
1442
100
AcDbEntity
  8
1660.241
100
AcDbFaceRecord
 10
0.0
 20
0.0
 30
0.0
 70
   128
 71
   -21
 72
     6
 73
    -7
  0
VERTEX
  5
1463
330
1442
100
AcDbEntity
  8
1660.241
100
AcDbFaceRecord
 10
0.0
 20
0.0
 30
0.0
 70
   128
 71
     3
 72
    -4
 73
   -24
  0
VERTEX
  5
1464
330
1442
100
AcDbEntity
  8
1660.241
100
AcDbFaceRecord
 10
0.0
 20
0.0
 30
0.0
 70
   128
 71
    -5
 72
   -23
 73
     4
  0
VERTEX
  5
1465
330
1442
100
AcDbEntity
  8
1660.241
100
AcDbFaceRecord
 10
0.0
 20
0.0
 30
0.0
 70
   128
 71
     5
 72
    -6
 73
   -22
  0
VERTEX
  5
1466
330
1442
100
AcDbEntity
  8
1660.241
100
AcDbFaceRecord
 10
0.0
 20
0.0
 30
0.0
 70
   128
 71
    -7
 72
    20
 73
   -21
  0
VERTEX
  5
1467
330
1442
100
AcDbEntity
  8
1660.241
100
AcDbFaceRecord
 10
0.0
 20
0.0
 30
0.0
 70
   128
 71
    17
 72
   -18
 73
    -9
  0
VERTEX
  5
1468
330
1442
100
AcDbEntity
  8
1660.241
100
AcDbFaceRecord
 10
0.0
 20
0.0
 30
0.0
 70
   128
 71
    15
 72
   -16
 73
   -11
  0
VERTEX
  5
1469
330
1442
100
AcDbEntity
  8
1660.241
100
AcDbFaceRecord
 10
0.0
 20
0.0
 30
0.0
 70
   128
 71
    16
 72
   -17
 73
    10
 74
   -11
  0
VERTEX
  5
146A
330
1442
100
AcDbEntity
  8
1660.241
100
AcDbFaceRecord
 10
0.0
 20
0.0
 30
0.0
 70
   128
 71
    14
 72
   -15
 73
    12
 74
    13
  0
VERTEX
  5
146B
330
1442
100
AcDbEntity
  8
1660.241
100
AcDbFaceRecord
 10
0.0
 20
0.0
 30
0.0
 70
   128
 71
     8
 72
    -9
 73
   -19
  0
VERTEX
  5
146C
330
1442
100
AcDbEntity
  8
1660.241
100
AcDbFaceRecord
 10
0.0
 20
0.0
 30
0.0
 70
   128
 71
    -9
 72
    18
 73
   -19
  0
VERTEX
  5
146D
330
1442
100
AcDbEntity
  8
1660.241
100
AcDbFaceRecord
 10
0.0
 20
0.0
 30
0.0
 70
   128
 71
   -19
 72
     7
 73
    -8
  0
VERTEX
  5
146E
330
1442
100
AcDbEntity
  8
1660.241
100
AcDbFaceRecord
 10
0.0
 20
0.0
 30
0.0
 70
   128
 71
     9
 72
   -10
 73
   -17
  0
VERTEX
  5
146F
330
1442
100
AcDbEntity
  8
1660.241
100
AcDbFaceRecord
 10
0.0
 20
0.0
 30
0.0
 70
   128
 71
   -12
 72
   -15
 73
    11
  0
VERTEX
  5
1470
330
1442
100
AcDbEntity
  8
1660.241
100
AcDbFaceRecord
 10
0.0
 20
0.0
 30
0.0
 70
   128
 71
   -20
 72
    -7
 73
    19
  0
SEQEND
  5
1471
330
1442
100
AcDbEntity
  8
1660.241
  0
POLYLINE
  5
1472
330
8DA
100
AcDbEntity
  8
1660.241
100
AcDbPolyFaceMesh
 66
     1
 10
0.0
 20
0.0
 30
0.0
 70
    64
 71
    33
 72
    20
1001
REVIT
1002
{
1070
     4
1000
6414
1002
}
1002
{
1070
     2
1000
-2001160
1002
}
  0
VERTEX
  5
1473
330
1472
100
AcDbEntity
  8
1660.241
100
AcDbVertex
100
AcDbPolyFaceMeshVertex
 10
0.0000000000000002
 20
0.8750000260772061
 30
0.3000000044704041
 70
   192
  0
VERTEX
  5
1474
330
1472
100
AcDbEntity
  8
1660.241
100
AcDbVertex
100
AcDbPolyFaceMeshVertex
 10
-0.5877852737906057
 20
0.6840169988574343
 30
0.3000000044704041
 70
   192
  0
VERTEX
  5
1475
330
1472
100
AcDbEntity
  8
1660.241
100
AcDbVertex
100
AcDbPolyFaceMeshVertex
 10
-0.9510565102102834
 20
0.1840169839562731
 30
0.3000000044704041
 70
   192
  0
VERTEX
  5
1476
330
1472
100
AcDbEntity
  8
1660.241
100
AcDbVertex
100
AcDbPolyFaceMeshVertex
 10
-0.9510565102102834
 20
-0.4340169914065047
 30
0.3000000044704041
 70
   192
  0
VERTEX
  5
1477
330
1472
100
AcDbEntity
  8
1660.241
100
AcDbVertex
100
AcDbPolyFaceMeshVertex
 10
-0.5877852737906057
 20
-0.9340170063076659
 30
0.3000000044704041
 70
   192
  0
VERTEX
  5
1478
330
1472
100
AcDbEntity
  8
1660.241
100
AcDbVertex
100
AcDbPolyFaceMeshVertex
 10
0.0000000000000035
 20
-1.125000033527437
 30
0.3000000044704041
 70
   192
  0
VERTEX
  5
1479
330
1472
100
AcDbEntity
  8
1660.241
100
AcDbVertex
100
AcDbPolyFaceMeshVertex
 10
0.0000000000000035
 20
-0.5250000245867415
 30
0.3000000044704041
 70
   192
  0
VERTEX
  5
147A
330
1472
100
AcDbEntity
  8
1660.241
100
AcDbVertex
100
AcDbPolyFaceMeshVertex
 10
-0.1035276129844266
 20
-0.5113703347740813
 30
0.3000000044704041
 70
   192
  0
VERTEX
  5
147B
330
1472
100
AcDbEntity
  8
1660.241
100
AcDbVertex
100
AcDbPolyFaceMeshVertex
 10
-0.200000010431059
 20
-0.4714101590214415
 30
0.3000000044704041
 70
   192
  0
VERTEX
  5
147C
330
1472
100
AcDbEntity
  8
1660.241
100
AcDbVertex
100
AcDbPolyFaceMeshVertex
 10
-0.2828427180650311
 20
-0.4078427217899008
 30
0.3000000044704041
 70
   192
  0
VERTEX
  5
147D
330
1472
100
AcDbEntity
  8
1660.241
100
AcDbVertex
100
AcDbPolyFaceMeshVertex
 10
-0.3464101552965718
 20
-0.3250000141559286
 30
0.3000000044704041
 70
   192
  0
VERTEX
  5
147E
330
1472
100
AcDbEntity
  8
1660.241
100
AcDbVertex
100
AcDbPolyFaceMeshVertex
 10
-0.3863703310492116
 20
-0.2285276167092962
 30
0.3000000044704041
 70
   192
  0
VERTEX
  5
147F
330
1472
100
AcDbEntity
  8
1660.241
100
AcDbVertex
100
AcDbPolyFaceMeshVertex
 10
-0.4000000208618718
 20
-0.1250000037254511
 30
0.3000000044704041
 70
   192
  0
VERTEX
  5
1480
330
1472
100
AcDbEntity
  8
1660.241
100
AcDbVertex
100
AcDbPolyFaceMeshVertex
 10
-0.3863703310492116
 20
-0.0214723907409353
 30
0.3000000044704041
 70
   192
  0
VERTEX
  5
1481
330
1472
100
AcDbEntity
  8
1660.241
100
AcDbVertex
100
AcDbPolyFaceMeshVertex
 10
-0.3464101552965718
 20
0.0750000067056971
 30
0.3000000044704041
 70
   192
  0
VERTEX
  5
1482
330
1472
100
AcDbEntity
  8
1660.241
100
AcDbVertex
100
AcDbPolyFaceMeshVertex
 10
-0.2828427180650311
 20
0.1578427143396692
 30
0.3000000044704041
 70
   192
  0
VERTEX
  5
1483
330
1472
100
AcDbEntity
  8
1660.241
100
AcDbVertex
100
AcDbPolyFaceMeshVertex
 10
-0.200000010431059
 20
0.2214101515712099
 30
0.3000000044704041
 70
   192
  0
VERTEX
  5
1484
330
1472
100
AcDbEntity
  8
1660.241
100
AcDbVertex
100
AcDbPolyFaceMeshVertex
 10
-0.1035276129844266
 20
0.2613703273238497
 30
0.3000000044704041
 70
   192
  0
VERTEX
  5
1485
330
1472
100
AcDbEntity
  8
1660.241
100
AcDbVertex
100
AcDbPolyFaceMeshVertex
 10
0.0000000000000022
 20
0.2750000171365099
 30
0.3000000044704041
 70
   192
  0
VERTEX
  5
1486
330
1472
100
AcDbEntity
  8
1660.241
100
AcDbVertex
100
AcDbPolyFaceMeshVertex
 10
0.0000000000000035
 20
-0.3750000111756964
 30
0.3000000044704041
 70
   192
  0
VERTEX
  5
1487
330
1472
100
AcDbEntity
  8
1660.241
100
AcDbVertex
100
AcDbPolyFaceMeshVertex
 10
0.0000000000000035
 20
-0.1250000037254508
 30
0.3000000044704041
 70
   192
  0
VERTEX
  5
1488
330
1472
100
AcDbEntity
  8
1660.241
100
AcDbVertex
100
AcDbPolyFaceMeshVertex
 10
0.0000000000000026
 20
0.1250000037254648
 30
0.3000000044704041
 70
   192
  0
VERTEX
  5
1489
330
1472
100
AcDbEntity
  8
1660.241
100
AcDbVertex
100
AcDbPolyFaceMeshVertex
 10
-0.0647047609093267
 20
0.1164814420046167
 30
0.3000000044704041
 70
   192
  0
VERTEX
  5
148A
330
1472
100
AcDbEntity
  8
1660.241
100
AcDbVertex
100
AcDbPolyFaceMeshVertex
 10
-0.1250000037255365
 20
0.0915063433350878
 30
0.3000000044704041
 70
   192
  0
VERTEX
  5
148B
330
1472
100
AcDbEntity
  8
1660.241
100
AcDbVertex
100
AcDbPolyFaceMeshVertex
 10
-0.1767766959967691
 20
0.0517766922714071
 30
0.3000000044704041
 70
   192
  0
VERTEX
  5
148C
330
1472
100
AcDbEntity
  8
1660.241
100
AcDbVertex
100
AcDbPolyFaceMeshVertex
 10
-0.2165063470604497
 20
0.0000000000001745
 30
0.3000000044704041
 70
   192
  0
VERTEX
  5
148D
330
1472
100
AcDbEntity
  8
1660.241
100
AcDbVertex
100
AcDbPolyFaceMeshVertex
 10
-0.2414814457299787
 20
-0.0602952428160353
 30
0.3000000044704041
 70
   192
  0
VERTEX
  5
148E
330
1472
100
AcDbEntity
  8
1660.241
100
AcDbVertex
100
AcDbPolyFaceMeshVertex
 10
-0.2500000074508267
 20
-0.1250000037254508
 30
0.3000000044704041
 70
   192
  0
VERTEX
  5
148F
330
1472
100
AcDbEntity
  8
1660.241
100
AcDbVertex
100
AcDbPolyFaceMeshVertex
 10
-0.2414814457299787
 20
-0.1897047646341963
 30
0.3000000044704041
 70
   192
  0
VERTEX
  5
1490
330
1472
100
AcDbEntity
  8
1660.241
100
AcDbVertex
100
AcDbPolyFaceMeshVertex
 10
-0.2165063470604497
 20
-0.2500000074504061
 30
0.3000000044704041
 70
   192
  0
VERTEX
  5
1491
330
1472
100
AcDbEntity
  8
1660.241
100
AcDbVertex
100
AcDbPolyFaceMeshVertex
 10
-0.1767766959967691
 20
-0.3017766997216387
 30
0.3000000044704041
 70
   192
  0
VERTEX
  5
1492
330
1472
100
AcDbEntity
  8
1660.241
100
AcDbVertex
100
AcDbPolyFaceMeshVertex
 10
-0.1250000037255365
 20
-0.3415063507853193
 30
0.3000000044704041
 70
   192
  0
VERTEX
  5
1493
330
1472
100
AcDbEntity
  8
1660.241
100
AcDbVertex
100
AcDbPolyFaceMeshVertex
 10
-0.0647047609093267
 20
-0.3664814494548483
 30
0.3000000044704041
 70
   192
  0
VERTEX
  5
1494
330
1472
100
AcDbEntity
  8
1660.241
100
AcDbFaceRecord
 10
0.0
 20
0.0
 30
0.0
 70
   128
 71
    18
 72
    19
 73
     1
 74
    -2
  0
VERTEX
  5
1495
330
1472
100
AcDbEntity
  8
1660.241
100
AcDbFaceRecord
 10
0.0
 20
0.0
 30
0.0
 70
   128
 71
    17
 72
   -18
 73
    -2
  0
VERTEX
  5
1496
330
1472
100
AcDbEntity
  8
1660.241
100
AcDbFaceRecord
 10
0.0
 20
0.0
 30
0.0
 70
   128
 71
   -15
 72
     2
 73
    -3
 74
    14
  0
VERTEX
  5
1497
330
1472
100
AcDbEntity
  8
1660.241
100
AcDbFaceRecord
 10
0.0
 20
0.0
 30
0.0
 70
   128
 71
    -2
 72
    15
 73
   -16
  0
VERTEX
  5
1498
330
1472
100
AcDbEntity
  8
1660.241
100
AcDbFaceRecord
 10
0.0
 20
0.0
 30
0.0
 70
   128
 71
    16
 72
   -17
 73
    -2
  0
VERTEX
  5
1499
330
1472
100
AcDbEntity
  8
1660.241
100
AcDbFaceRecord
 10
0.0
 20
0.0
 30
0.0
 70
   128
 71
    13
 72
   -14
 73
     3
 74
    -4
  0
VERTEX
  5
149A
330
1472
100
AcDbEntity
  8
1660.241
100
AcDbFaceRecord
 10
0.0
 20
0.0
 30
0.0
 70
   128
 71
     9
 72
   -10
 73
    -5
  0
VERTEX
  5
149B
330
1472
100
AcDbEntity
  8
1660.241
100
AcDbFaceRecord
 10
0.0
 20
0.0
 30
0.0
 70
   128
 71
     6
 72
     7
 73
    -8
  0
VERTEX
  5
149C
330
1472
100
AcDbEntity
  8
1660.241
100
AcDbFaceRecord
 10
0.0
 20
0.0
 30
0.0
 70
   128
 71
     8
 72
    -9
 73
     5
 74
    -6
  0
VERTEX
  5
149D
330
1472
100
AcDbEntity
  8
1660.241
100
AcDbFaceRecord
 10
0.0
 20
0.0
 30
0.0
 70
   128
 71
    -4
 72
    12
 73
   -13
  0
VERTEX
  5
149E
330
1472
100
AcDbEntity
  8
1660.241
100
AcDbFaceRecord
 10
0.0
 20
0.0
 30
0.0
 70
   128
 71
   -11
 72
     4
 73
    -5
 74
    10
  0
VERTEX
  5
149F
330
1472
100
AcDbEntity
  8
1660.241
100
AcDbFaceRecord
 10
0.0
 20
0.0
 30
0.0
 70
   128
 71
   -12
 72
    -4
 73
    11
  0
VERTEX
  5
14A0
330
1472
100
AcDbEntity
  8
1660.241
100
AcDbFaceRecord
 10
0.0
 20
0.0
 30
0.0
 70
   128
 71
   -21
 72
    23
 73
    24
 74
   -25
  0
VERTEX
  5
14A1
330
1472
100
AcDbEntity
  8
1660.241
100
AcDbFaceRecord
 10
0.0
 20
0.0
 30
0.0
 70
   128
 71
   -21
 72
    26
 73
    27
 74
   -28
  0
VERTEX
  5
14A2
330
1472
100
AcDbEntity
  8
1660.241
100
AcDbFaceRecord
 10
0.0
 20
0.0
 30
0.0
 70
   128
 71
    25
 72
   -26
 73
   -21
  0
VERTEX
  5
14A3
330
1472
100
AcDbEntity
  8
1660.241
100
AcDbFaceRecord
 10
0.0
 20
0.0
 30
0.0
 70
   128
 71
    22
 72
   -23
 73
    21
  0
VERTEX
  5
14A4
330
1472
100
AcDbEntity
  8
1660.241
100
AcDbFaceRecord
 10
0.0
 20
0.0
 30
0.0
 70
   128
 71
    33
 72
    20
 73
   -21
 74
    32
  0
VERTEX
  5
14A5
330
1472
100
AcDbEntity
  8
1660.241
100
AcDbFaceRecord
 10
0.0
 20
0.0
 30
0.0
 70
   128
 71
   -21
 72
    29
 73
    30
 74
   -31
  0
VERTEX
  5
14A6
330
1472
100
AcDbEntity
  8
1660.241
100
AcDbFaceRecord
 10
0.0
 20
0.0
 30
0.0
 70
   128
 71
    31
 72
   -32
 73
   -21
  0
VERTEX
  5
14A7
330
1472
100
AcDbEntity
  8
1660.241
100
AcDbFaceRecord
 10
0.0
 20
0.0
 30
0.0
 70
   128
 71
    28
 72
   -29
 73
   -21
  0
SEQEND
  5
14A8
330
1472
100
AcDbEntity
  8
1660.241
  0
POLYLINE
  5
14A9
330
8DA
100
AcDbEntity
  8
1660.241
100
AcDbPolyFaceMesh
 66
     1
 10
0.0
 20
0.0
 30
0.0
 70
    64
 71
    33
 72
    19
1001
REVIT
1002
{
1070
     4
1000
6414
1002
}
1002
{
1070
     2
1000
-2001160
1002
}
  0
VERTEX
  5
14AA
330
14A9
100
AcDbEntity
  8
1660.241
100
AcDbVertex
100
AcDbPolyFaceMeshVertex
 10
0.0000000000000098
 20
-1.125000033527437
 30
0.3000000044704041
 70
   192
  0
VERTEX
  5
14AB
330
14A9
100
AcDbEntity
  8
1660.241
100
AcDbVertex
100
AcDbPolyFaceMeshVertex
 10
0.5877852737901132
 20
-0.9340170063076659
 30
0.3000000044704041
 70
   192
  0
VERTEX
  5
14AC
330
14A9
100
AcDbEntity
  8
1660.241
100
AcDbVertex
100
AcDbPolyFaceMeshVertex
 10
0.9510565102097908
 20
-0.4340169914065047
 30
0.3000000044704041
 70
   192
  0
VERTEX
  5
14AD
330
14A9
100
AcDbEntity
  8
1660.241
100
AcDbVertex
100
AcDbPolyFaceMeshVertex
 10
0.9510565102097908
 20
0.1840169839562731
 30
0.3000000044704041
 70
   192
  0
VERTEX
  5
14AE
330
14A9
100
AcDbEntity
  8
1660.241
100
AcDbVertex
100
AcDbPolyFaceMeshVertex
 10
0.5877852737901132
 20
0.6840169988574343
 30
0.3000000044704041
 70
   192
  0
VERTEX
  5
14AF
330
14A9
100
AcDbEntity
  8
1660.241
100
AcDbVertex
100
AcDbPolyFaceMeshVertex
 10
0.0000000000000003
 20
0.8750000260772061
 30
0.3000000044704041
 70
   192
  0
VERTEX
  5
14B0
330
14A9
100
AcDbEntity
  8
1660.241
100
AcDbVertex
100
AcDbPolyFaceMeshVertex
 10
0.0000000000000047
 20
0.2750000171365099
 30
0.3000000044704041
 70
   192
  0
VERTEX
  5
14B1
330
14A9
100
AcDbEntity
  8
1660.241
100
AcDbVertex
100
AcDbPolyFaceMeshVertex
 10
0.1035276129839342
 20
0.2613703273238497
 30
0.3000000044704041
 70
   192
  0
VERTEX
  5
14B2
330
14A9
100
AcDbEntity
  8
1660.241
100
AcDbVertex
100
AcDbPolyFaceMeshVertex
 10
0.2000000104305666
 20
0.2214101515712099
 30
0.3000000044704041
 70
   192
  0
VERTEX
  5
14B3
330
14A9
100
AcDbEntity
  8
1660.241
100
AcDbVertex
100
AcDbPolyFaceMeshVertex
 10
0.2828427180645388
 20
0.1578427143396692
 30
0.3000000044704041
 70
   192
  0
VERTEX
  5
14B4
330
14A9
100
AcDbEntity
  8
1660.241
100
AcDbVertex
100
AcDbPolyFaceMeshVertex
 10
0.3464101552960794
 20
0.0750000067056971
 30
0.3000000044704041
 70
   192
  0
VERTEX
  5
14B5
330
14A9
100
AcDbEntity
  8
1660.241
100
AcDbVertex
100
AcDbPolyFaceMeshVertex
 10
0.3863703310487192
 20
-0.0214723907409353
 30
0.3000000044704041
 70
   192
  0
VERTEX
  5
14B6
330
14A9
100
AcDbEntity
  8
1660.241
100
AcDbVertex
100
AcDbPolyFaceMeshVertex
 10
0.4000000208613795
 20
-0.1250000037254497
 30
0.3000000044704041
 70
   192
  0
VERTEX
  5
14B7
330
14A9
100
AcDbEntity
  8
1660.241
100
AcDbVertex
100
AcDbPolyFaceMeshVertex
 10
0.3863703310487192
 20
-0.2285276167092962
 30
0.3000000044704041
 70
   192
  0
VERTEX
  5
14B8
330
14A9
100
AcDbEntity
  8
1660.241
100
AcDbVertex
100
AcDbPolyFaceMeshVertex
 10
0.3464101552960794
 20
-0.3250000141559286
 30
0.3000000044704041
 70
   192
  0
VERTEX
  5
14B9
330
14A9
100
AcDbEntity
  8
1660.241
100
AcDbVertex
100
AcDbPolyFaceMeshVertex
 10
0.2828427180645388
 20
-0.4078427217899008
 30
0.3000000044704041
 70
   192
  0
VERTEX
  5
14BA
330
14A9
100
AcDbEntity
  8
1660.241
100
AcDbVertex
100
AcDbPolyFaceMeshVertex
 10
0.2000000104305666
 20
-0.4714101590214415
 30
0.3000000044704041
 70
   192
  0
VERTEX
  5
14BB
330
14A9
100
AcDbEntity
  8
1660.241
100
AcDbVertex
100
AcDbPolyFaceMeshVertex
 10
0.1035276129839342
 20
-0.5113703347740813
 30
0.3000000044704041
 70
   192
  0
VERTEX
  5
14BC
330
14A9
100
AcDbEntity
  8
1660.241
100
AcDbVertex
100
AcDbPolyFaceMeshVertex
 10
0.0000000000000061
 20
-0.5250000245867415
 30
0.3000000044704041
 70
   192
  0
VERTEX
  5
14BD
330
14A9
100
AcDbEntity
  8
1660.241
100
AcDbVertex
100
AcDbPolyFaceMeshVertex
 10
0.0000000000000035
 20
-0.1250000037254526
 30
0.3000000044704041
 70
   192
  0
VERTEX
  5
14BE
330
14A9
100
AcDbEntity
  8
1660.241
100
AcDbVertex
100
AcDbPolyFaceMeshVertex
 10
0.0000000000000035
 20
-0.3750000111756964
 30
0.3000000044704041
 70
   192
  0
VERTEX
  5
14BF
330
14A9
100
AcDbEntity
  8
1660.241
100
AcDbVertex
100
AcDbPolyFaceMeshVertex
 10
0.0647047609088343
 20
-0.3664814494548483
 30
0.3000000044704041
 70
   192
  0
VERTEX
  5
14C0
330
14A9
100
AcDbEntity
  8
1660.241
100
AcDbVertex
100
AcDbPolyFaceMeshVertex
 10
0.125000003725044
 20
-0.3415063507853193
 30
0.3000000044704041
 70
   192
  0
VERTEX
  5
14C1
330
14A9
100
AcDbEntity
  8
1660.241
100
AcDbVertex
100
AcDbPolyFaceMeshVertex
 10
0.1767766959962767
 20
-0.3017766997216387
 30
0.3000000044704041
 70
   192
  0
VERTEX
  5
14C2
330
14A9
100
AcDbEntity
  8
1660.241
100
AcDbVertex
100
AcDbPolyFaceMeshVertex
 10
0.2165063470599573
 20
-0.2500000074504061
 30
0.3000000044704041
 70
   192
  0
VERTEX
  5
14C3
330
14A9
100
AcDbEntity
  8
1660.241
100
AcDbVertex
100
AcDbPolyFaceMeshVertex
 10
0.2414814457294863
 20
-0.1897047646341963
 30
0.3000000044704041
 70
   192
  0
VERTEX
  5
14C4
330
14A9
100
AcDbEntity
  8
1660.241
100
AcDbVertex
100
AcDbPolyFaceMeshVertex
 10
0.2500000074503343
 20
-0.1250000037254515
 30
0.3000000044704041
 70
   192
  0
VERTEX
  5
14C5
330
14A9
100
AcDbEntity
  8
1660.241
100
AcDbVertex
100
AcDbPolyFaceMeshVertex
 10
0.2414814457294863
 20
-0.0602952428160353
 30
0.3000000044704041
 70
   192
  0
VERTEX
  5
14C6
330
14A9
100
AcDbEntity
  8
1660.241
100
AcDbVertex
100
AcDbPolyFaceMeshVertex
 10
0.2165063470599573
 20
0.0000000000001745
 30
0.3000000044704041
 70
   192
  0
VERTEX
  5
14C7
330
14A9
100
AcDbEntity
  8
1660.241
100
AcDbVertex
100
AcDbPolyFaceMeshVertex
 10
0.1767766959962767
 20
0.0517766922714071
 30
0.3000000044704041
 70
   192
  0
VERTEX
  5
14C8
330
14A9
100
AcDbEntity
  8
1660.241
100
AcDbVertex
100
AcDbPolyFaceMeshVertex
 10
0.125000003725044
 20
0.0915063433350878
 30
0.3000000044704041
 70
   192
  0
VERTEX
  5
14C9
330
14A9
100
AcDbEntity
  8
1660.241
100
AcDbVertex
100
AcDbPolyFaceMeshVertex
 10
0.0647047609088343
 20
0.1164814420046167
 30
0.3000000044704041
 70
   192
  0
VERTEX
  5
14CA
330
14A9
100
AcDbEntity
  8
1660.241
100
AcDbVertex
100
AcDbPolyFaceMeshVertex
 10
0.0000000000000027
 20
0.1250000037254648
 30
0.3000000044704041
 70
   192
  0
VERTEX
  5
14CB
330
14A9
100
AcDbEntity
  8
1660.241
100
AcDbFaceRecord
 10
0.0
 20
0.0
 30
0.0
 70
   128
 71
     4
 72
    -5
 73
    11
 74
   -12
  0
VERTEX
  5
14CC
330
14A9
100
AcDbEntity
  8
1660.241
100
AcDbFaceRecord
 10
0.0
 20
0.0
 30
0.0
 70
   128
 71
    12
 72
   -13
 73
    -4
  0
VERTEX
  5
14CD
330
14A9
100
AcDbEntity
  8
1660.241
100
AcDbFaceRecord
 10
0.0
 20
0.0
 30
0.0
 70
   128
 71
    10
 72
   -11
 73
    -5
  0
VERTEX
  5
14CE
330
14A9
100
AcDbEntity
  8
1660.241
100
AcDbFaceRecord
 10
0.0
 20
0.0
 30
0.0
 70
   128
 71
     6
 72
     7
 73
    -8
 74
     5
  0
VERTEX
  5
14CF
330
14A9
100
AcDbEntity
  8
1660.241
100
AcDbFaceRecord
 10
0.0
 20
0.0
 30
0.0
 70
   128
 71
    -9
 72
    -5
 73
     8
  0
VERTEX
  5
14D0
330
14A9
100
AcDbEntity
  8
1660.241
100
AcDbFaceRecord
 10
0.0
 20
0.0
 30
0.0
 70
   128
 71
     9
 72
   -10
 73
    -5
  0
VERTEX
  5
14D1
330
14A9
100
AcDbEntity
  8
1660.241
100
AcDbFaceRecord
 10
0.0
 20
0.0
 30
0.0
 70
   128
 71
    13
 72
   -14
 73
     3
 74
    -4
  0
VERTEX
  5
14D2
330
14A9
100
AcDbEntity
  8
1660.241
100
AcDbFaceRecord
 10
0.0
 20
0.0
 30
0.0
 70
   128
 71
   -15
 72
     2
 73
    -3
 74
    14
  0
VERTEX
  5
14D3
330
14A9
100
AcDbEntity
  8
1660.241
100
AcDbFaceRecord
 10
0.0
 20
0.0
 30
0.0
 70
   128
 71
   -16
 72
    -2
 73
    15
  0
VERTEX
  5
14D4
330
14A9
100
AcDbEntity
  8
1660.241
100
AcDbFaceRecord
 10
0.0
 20
0.0
 30
0.0
 70
   128
 71
   -17
 72
    -2
 73
    16
  0
VERTEX
  5
14D5
330
14A9
100
AcDbEntity
  8
1660.241
100
AcDbFaceRecord
 10
0.0
 20
0.0
 30
0.0
 70
   128
 71
    19
 72
    -1
 73
    18
  0
VERTEX
  5
14D6
330
14A9
100
AcDbEntity
  8
1660.241
100
AcDbFaceRecord
 10
0.0
 20
0.0
 30
0.0
 70
   128
 71
    -2
 72
    17
 73
   -18
 74
     1
  0
VERTEX
  5
14D7
330
14A9
100
AcDbEntity
  8
1660.241
100
AcDbFaceRecord
 10
0.0
 20
0.0
 30
0.0
 70
   128
 71
   -20
 72
    28
 73
    29
 74
   -30
  0
VERTEX
  5
14D8
330
14A9
100
AcDbEntity
  8
1660.241
100
AcDbFaceRecord
 10
0.0
 20
0.0
 30
0.0
 70
   128
 71
    32
 72
    33
 73
   -20
  0
VERTEX
  5
14D9
330
14A9
100
AcDbEntity
  8
1660.241
100
AcDbFaceRecord
 10
0.0
 20
0.0
 30
0.0
 70
   128
 71
   -20
 72
    30
 73
    31
 74
   -32
  0
VERTEX
  5
14DA
330
14A9
100
AcDbEntity
  8
1660.241
100
AcDbFaceRecord
 10
0.0
 20
0.0
 30
0.0
 70
   128
 71
    27
 72
   -28
 73
   -20
 74
    26
  0
VERTEX
  5
14DB
330
14A9
100
AcDbEntity
  8
1660.241
100
AcDbFaceRecord
 10
0.0
 20
0.0
 30
0.0
 70
   128
 71
    25
 72
   -26
 73
   -20
 74
    24
  0
VERTEX
  5
14DC
330
14A9
100
AcDbEntity
  8
1660.241
100
AcDbFaceRecord
 10
0.0
 20
0.0
 30
0.0
 70
   128
 71
   -20
 72
    22
 73
    23
 74
   -24
  0
VERTEX
  5
14DD
330
14A9
100
AcDbEntity
  8
1660.241
100
AcDbFaceRecord
 10
0.0
 20
0.0
 30
0.0
 70
   128
 71
    20
 72
    21
 73
   -22
  0
SEQEND
  5
14DE
330
14A9
100
AcDbEntity
  8
1660.241
  0
POLYLINE
  5
14DF
330
8DA
100
AcDbEntity
  8
1660.241
100
AcDbPolyFaceMesh
 66
     1
 10
0.0
 20
0.0
 30
0.0
 70
    64
 71
    24
 72
    16
1001
REVIT
1002
{
1070
     4
1000
6414
1002
}
1002
{
1070
     2
1000
-2001160
1002
}
  0
VERTEX
  5
14E0
330
14DF
100
AcDbEntity
  8
1660.241
100
AcDbVertex
100
AcDbPolyFaceMeshVertex
 10
-0.0000000000000033
 20
0.8750000260772061
 30
0.0000000000000121
 70
   192
  0
VERTEX
  5
14E1
330
14DF
100
AcDbEntity
  8
1660.241
100
AcDbVertex
100
AcDbPolyFaceMeshVertex
 10
-0.5877852737906057
 20
0.6840169988574343
 30
0.0000000000000155
 70
   192
  0
VERTEX
  5
14E2
330
14DF
100
AcDbEntity
  8
1660.241
100
AcDbVertex
100
AcDbPolyFaceMeshVertex
 10
-0.9510565102102834
 20
0.1840169839562731
 30
0.0000000000000123
 70
   192
  0
VERTEX
  5
14E3
330
14DF
100
AcDbEntity
  8
1660.241
100
AcDbVertex
100
AcDbPolyFaceMeshVertex
 10
-0.9510565102102834
 20
-0.4340169914065047
 30
0.0000000000000038
 70
   192
  0
VERTEX
  5
14E4
330
14DF
100
AcDbEntity
  8
1660.241
100
AcDbVertex
100
AcDbPolyFaceMeshVertex
 10
-0.5877852737906057
 20
-0.9340170063076659
 30
-0.0000000000000069
 70
   192
  0
VERTEX
  5
14E5
330
14DF
100
AcDbEntity
  8
1660.241
100
AcDbVertex
100
AcDbPolyFaceMeshVertex
 10
0.0000000000000004
 20
-1.125000033527437
 30
-0.0000000000000156
 70
   192
  0
VERTEX
  5
14E6
330
14DF
100
AcDbEntity
  8
1660.241
100
AcDbVertex
100
AcDbPolyFaceMeshVertex
 10
0.0000000000000035
 20
-1.125000033527437
 30
0.3000000044704041
 70
   192
  0
VERTEX
  5
14E7
330
14DF
100
AcDbEntity
  8
1660.241
100
AcDbVertex
100
AcDbPolyFaceMeshVertex
 10
-0.5877852737906057
 20
-0.9340170063076659
 30
0.3000000044704041
 70
   192
  0
VERTEX
  5
14E8
330
14DF
100
AcDbEntity
  8
1660.241
100
AcDbVertex
100
AcDbPolyFaceMeshVertex
 10
-0.9510565102102834
 20
-0.4340169914065047
 30
0.3000000044704041
 70
   192
  0
VERTEX
  5
14E9
330
14DF
100
AcDbEntity
  8
1660.241
100
AcDbVertex
100
AcDbPolyFaceMeshVertex
 10
-0.9510565102102834
 20
0.1840169839562731
 30
0.3000000044704041
 70
   192
  0
VERTEX
  5
14EA
330
14DF
100
AcDbEntity
  8
1660.241
100
AcDbVertex
100
AcDbPolyFaceMeshVertex
 10
-0.5877852737906057
 20
0.6840169988574343
 30
0.3000000044704041
 70
   192
  0
VERTEX
  5
14EB
330
14DF
100
AcDbEntity
  8
1660.241
100
AcDbVertex
100
AcDbPolyFaceMeshVertex
 10
0.0000000000000003
 20
0.8750000260772061
 30
0.3000000044704041
 70
   192
  0
VERTEX
  5
14EC
330
14DF
100
AcDbEntity
  8
1660.241
100
AcDbVertex
100
AcDbPolyFaceMeshVertex
 10
-0.4050787389280873
 20
-0.9933819808064146
 30
0.3000000044704041
 70
   192
  0
VERTEX
  5
14ED
330
14DF
100
AcDbEntity
  8
1660.241
100
AcDbVertex
100
AcDbPolyFaceMeshVertex
 10
-0.2938926368954259
 20
-1.029508475214068
 30
-0.0000000000000112
 70
   192
  0
VERTEX
  5
14EE
330
14DF
100
AcDbEntity
  8
1660.241
100
AcDbVertex
100
AcDbPolyFaceMeshVertex
 10
-0.7694208920004445
 20
-0.6840169765053434
 30
-0.0000000000000016
 70
   192
  0
VERTEX
  5
14EF
330
14DF
100
AcDbEntity
  8
1660.241
100
AcDbVertex
100
AcDbPolyFaceMeshVertex
 10
-0.7694208920004445
 20
-0.6840169765053434
 30
0.3000000044704041
 70
   192
  0
VERTEX
  5
14F0
330
14DF
100
AcDbEntity
  8
1660.241
100
AcDbVertex
100
AcDbPolyFaceMeshVertex
 10
-0.9510565102102834
 20
-0.1250000037254493
 30
0.0000000000000081
 70
   192
  0
VERTEX
  5
14F1
330
14DF
100
AcDbEntity
  8
1660.241
100
AcDbVertex
100
AcDbPolyFaceMeshVertex
 10
-0.9510565102102834
 20
-0.1250000037254535
 30
0.3000000044704041
 70
   192
  0
VERTEX
  5
14F2
330
14DF
100
AcDbEntity
  8
1660.241
100
AcDbVertex
100
AcDbPolyFaceMeshVertex
 10
-0.7694208920004445
 20
0.4340169690551119
 30
0.0000000000000139
 70
   192
  0
VERTEX
  5
14F3
330
14DF
100
AcDbEntity
  8
1660.241
100
AcDbVertex
100
AcDbPolyFaceMeshVertex
 10
-0.7694208920004445
 20
0.4340169690551119
 30
0.3000000044704041
 70
   192
  0
VERTEX
  5
14F4
330
14DF
100
AcDbEntity
  8
1660.241
100
AcDbVertex
100
AcDbPolyFaceMeshVertex
 10
-0.4050787389280873
 20
0.7433819733561831
 30
0.0000000000000144
 70
   192
  0
VERTEX
  5
14F5
330
14DF
100
AcDbEntity
  8
1660.241
100
AcDbVertex
100
AcDbPolyFaceMeshVertex
 10
-0.2938926368954259
 20
0.7795084677638369
 30
0.3000000044704041
 70
   192
  0
VERTEX
  5
14F6
330
14DF
100
AcDbEntity
  8
1660.241
100
AcDbVertex
100
AcDbPolyFaceMeshVertex
 10
-0.2025393694641668
 20
-1.059190962463442
 30
0.3000000044704041
 70
   192
  0
VERTEX
  5
14F7
330
14DF
100
AcDbEntity
  8
1660.241
100
AcDbVertex
100
AcDbPolyFaceMeshVertex
 10
-0.2025393694641668
 20
0.8091909550132111
 30
0.0000000000000133
 70
   192
  0
VERTEX
  5
14F8
330
14DF
100
AcDbEntity
  8
1660.241
100
AcDbFaceRecord
 10
0.0
 20
0.0
 30
0.0
 70
   128
 71
    -8
 72
    -5
 73
    13
  0
VERTEX
  5
14F9
330
14DF
100
AcDbEntity
  8
1660.241
100
AcDbFaceRecord
 10
0.0
 20
0.0
 30
0.0
 70
   128
 71
    23
 72
   -13
 73
   -14
  0
VERTEX
  5
14FA
330
14DF
100
AcDbEntity
  8
1660.241
100
AcDbFaceRecord
 10
0.0
 20
0.0
 30
0.0
 70
   128
 71
   -23
 72
     6
 73
     7
  0
VERTEX
  5
14FB
330
14DF
100
AcDbEntity
  8
1660.241
100
AcDbFaceRecord
 10
0.0
 20
0.0
 30
0.0
 70
   128
 71
   -15
 72
    16
 73
    -9
 74
     4
  0
VERTEX
  5
14FC
330
14DF
100
AcDbEntity
  8
1660.241
100
AcDbFaceRecord
 10
0.0
 20
0.0
 30
0.0
 70
   128
 71
   -16
 72
    15
 73
    -5
 74
     8
  0
VERTEX
  5
14FD
330
14DF
100
AcDbEntity
  8
1660.241
100
AcDbFaceRecord
 10
0.0
 20
0.0
 30
0.0
 70
   128
 71
   -24
 72
    12
 73
     1
  0
VERTEX
  5
14FE
330
14DF
100
AcDbEntity
  8
1660.241
100
AcDbFaceRecord
 10
0.0
 20
0.0
 30
0.0
 70
   128
 71
   -17
 72
    18
 73
   -10
 74
     3
  0
VERTEX
  5
14FF
330
14DF
100
AcDbEntity
  8
1660.241
100
AcDbFaceRecord
 10
0.0
 20
0.0
 30
0.0
 70
   128
 71
   -19
 72
    20
 73
   -11
 74
     2
  0
VERTEX
  5
1500
330
14DF
100
AcDbEntity
  8
1660.241
100
AcDbFaceRecord
 10
0.0
 20
0.0
 30
0.0
 70
   128
 71
   -12
 72
   -24
 73
    22
  0
VERTEX
  5
1501
330
14DF
100
AcDbEntity
  8
1660.241
100
AcDbFaceRecord
 10
0.0
 20
0.0
 30
0.0
 70
   128
 71
   -20
 72
    19
 73
    -3
 74
    10
  0
VERTEX
  5
1502
330
14DF
100
AcDbEntity
  8
1660.241
100
AcDbFaceRecord
 10
0.0
 20
0.0
 30
0.0
 70
   128
 71
    -6
 72
   -23
 73
    14
  0
VERTEX
  5
1503
330
14DF
100
AcDbEntity
  8
1660.241
100
AcDbFaceRecord
 10
0.0
 20
0.0
 30
0.0
 70
   128
 71
   -11
 72
    21
 73
    -2
  0
VERTEX
  5
1504
330
14DF
100
AcDbEntity
  8
1660.241
100
AcDbFaceRecord
 10
0.0
 20
0.0
 30
0.0
 70
   128
 71
   -13
 72
     5
 73
   -14
  0
VERTEX
  5
1505
330
14DF
100
AcDbEntity
  8
1660.241
100
AcDbFaceRecord
 10
0.0
 20
0.0
 30
0.0
 70
   128
 71
    -4
 72
     9
 73
   -18
 74
    17
  0
VERTEX
  5
1506
330
14DF
100
AcDbEntity
  8
1660.241
100
AcDbFaceRecord
 10
0.0
 20
0.0
 30
0.0
 70
   128
 71
   -21
 72
    11
 73
   -22
  0
VERTEX
  5
1507
330
14DF
100
AcDbEntity
  8
1660.241
100
AcDbFaceRecord
 10
0.0
 20
0.0
 30
0.0
 70
   128
 71
    24
 72
   -21
 73
   -22
  0
SEQEND
  5
1508
330
14DF
100
AcDbEntity
  8
1660.241
  0
POLYLINE
  5
1509
330
8DA
100
AcDbEntity
  8
1660.241
100
AcDbPolyFaceMesh
 66
     1
 10
0.0
 20
0.0
 30
0.0
 70
    64
 71
    24
 72
    16
1001
REVIT
1002
{
1070
     4
1000
6414
1002
}
1002
{
1070
     2
1000
-2001160
1002
}
  0
VERTEX
  5
150A
330
1509
100
AcDbEntity
  8
1660.241
100
AcDbVertex
100
AcDbPolyFaceMeshVertex
 10
0.0000000000000078
 20
-1.125000033527437
 30
-0.0000000000000156
 70
   192
  0
VERTEX
  5
150B
330
1509
100
AcDbEntity
  8
1660.241
100
AcDbVertex
100
AcDbPolyFaceMeshVertex
 10
0.5877852737901132
 20
-0.9340170063076659
 30
-0.000000000000019
 70
   192
  0
VERTEX
  5
150C
330
1509
100
AcDbEntity
  8
1660.241
100
AcDbVertex
100
AcDbPolyFaceMeshVertex
 10
0.9510565102097908
 20
-0.4340169914065047
 30
-0.0000000000000158
 70
   192
  0
VERTEX
  5
150D
330
1509
100
AcDbEntity
  8
1660.241
100
AcDbVertex
100
AcDbPolyFaceMeshVertex
 10
0.9510565102097908
 20
0.1840169839562731
 30
-0.0000000000000072
 70
   192
  0
VERTEX
  5
150E
330
1509
100
AcDbEntity
  8
1660.241
100
AcDbVertex
100
AcDbPolyFaceMeshVertex
 10
0.5877852737901132
 20
0.6840169988574343
 30
0.0000000000000034
 70
   192
  0
VERTEX
  5
150F
330
1509
100
AcDbEntity
  8
1660.241
100
AcDbVertex
100
AcDbPolyFaceMeshVertex
 10
-0.0000000000000028
 20
0.8750000260772061
 30
0.0000000000000121
 70
   192
  0
VERTEX
  5
1510
330
1509
100
AcDbEntity
  8
1660.241
100
AcDbVertex
100
AcDbPolyFaceMeshVertex
 10
0.0000000000000003
 20
0.8750000260772061
 30
0.3000000044704041
 70
   192
  0
VERTEX
  5
1511
330
1509
100
AcDbEntity
  8
1660.241
100
AcDbVertex
100
AcDbPolyFaceMeshVertex
 10
0.5877852737901132
 20
0.6840169988574343
 30
0.3000000044704041
 70
   192
  0
VERTEX
  5
1512
330
1509
100
AcDbEntity
  8
1660.241
100
AcDbVertex
100
AcDbPolyFaceMeshVertex
 10
0.9510565102097908
 20
0.1840169839562731
 30
0.3000000044704041
 70
   192
  0
VERTEX
  5
1513
330
1509
100
AcDbEntity
  8
1660.241
100
AcDbVertex
100
AcDbPolyFaceMeshVertex
 10
0.9510565102097908
 20
-0.4340169914065047
 30
0.3000000044704041
 70
   192
  0
VERTEX
  5
1514
330
1509
100
AcDbEntity
  8
1660.241
100
AcDbVertex
100
AcDbPolyFaceMeshVertex
 10
0.5877852737901132
 20
-0.9340170063076659
 30
0.3000000044704041
 70
   192
  0
VERTEX
  5
1515
330
1509
100
AcDbEntity
  8
1660.241
100
AcDbVertex
100
AcDbPolyFaceMeshVertex
 10
0.0000000000000099
 20
-1.125000033527437
 30
0.3000000044704041
 70
   192
  0
VERTEX
  5
1516
330
1509
100
AcDbEntity
  8
1660.241
100
AcDbVertex
100
AcDbPolyFaceMeshVertex
 10
0.405078738927595
 20
0.7433819733561831
 30
0.3000000044704041
 70
   192
  0
VERTEX
  5
1517
330
1509
100
AcDbEntity
  8
1660.241
100
AcDbVertex
100
AcDbPolyFaceMeshVertex
 10
0.2938926368949335
 20
0.7795084677638369
 30
0.0000000000000078
 70
   192
  0
VERTEX
  5
1518
330
1509
100
AcDbEntity
  8
1660.241
100
AcDbVertex
100
AcDbPolyFaceMeshVertex
 10
0.769420891999952
 20
0.4340169690551119
 30
-0.0000000000000019
 70
   192
  0
VERTEX
  5
1519
330
1509
100
AcDbEntity
  8
1660.241
100
AcDbVertex
100
AcDbPolyFaceMeshVertex
 10
0.769420891999952
 20
0.4340169690551119
 30
0.3000000044704041
 70
   192
  0
VERTEX
  5
151A
330
1509
100
AcDbEntity
  8
1660.241
100
AcDbVertex
100
AcDbPolyFaceMeshVertex
 10
0.9510565102097908
 20
-0.1250000037254428
 30
-0.0000000000000115
 70
   192
  0
VERTEX
  5
151B
330
1509
100
AcDbEntity
  8
1660.241
100
AcDbVertex
100
AcDbPolyFaceMeshVertex
 10
0.9510565102097908
 20
-0.1250000037254473
 30
0.3000000044704041
 70
   192
  0
VERTEX
  5
151C
330
1509
100
AcDbEntity
  8
1660.241
100
AcDbVertex
100
AcDbPolyFaceMeshVertex
 10
0.769420891999952
 20
-0.6840169765053434
 30
-0.0000000000000174
 70
   192
  0
VERTEX
  5
151D
330
1509
100
AcDbEntity
  8
1660.241
100
AcDbVertex
100
AcDbPolyFaceMeshVertex
 10
0.769420891999952
 20
-0.6840169765053434
 30
0.3000000044704041
 70
   192
  0
VERTEX
  5
151E
330
1509
100
AcDbEntity
  8
1660.241
100
AcDbVertex
100
AcDbPolyFaceMeshVertex
 10
0.405078738927595
 20
-0.9933819808064146
 30
-0.0000000000000179
 70
   192
  0
VERTEX
  5
151F
330
1509
100
AcDbEntity
  8
1660.241
100
AcDbVertex
100
AcDbPolyFaceMeshVertex
 10
0.2938926368949335
 20
-1.029508475214068
 30
0.3000000044704041
 70
   192
  0
VERTEX
  5
1520
330
1509
100
AcDbEntity
  8
1660.241
100
AcDbVertex
100
AcDbPolyFaceMeshVertex
 10
0.2025393694636743
 20
0.8091909550132111
 30
0.3000000044704041
 70
   192
  0
VERTEX
  5
1521
330
1509
100
AcDbEntity
  8
1660.241
100
AcDbVertex
100
AcDbPolyFaceMeshVertex
 10
0.2025393694636743
 20
-1.059190962463442
 30
-0.0000000000000167
 70
   192
  0
VERTEX
  5
1522
330
1509
100
AcDbEntity
  8
1660.241
100
AcDbFaceRecord
 10
0.0
 20
0.0
 30
0.0
 70
   128
 71
    -8
 72
    -5
 73
    13
  0
VERTEX
  5
1523
330
1509
100
AcDbEntity
  8
1660.241
100
AcDbFaceRecord
 10
0.0
 20
0.0
 30
0.0
 70
   128
 71
    23
 72
   -13
 73
   -14
  0
VERTEX
  5
1524
330
1509
100
AcDbEntity
  8
1660.241
100
AcDbFaceRecord
 10
0.0
 20
0.0
 30
0.0
 70
   128
 71
   -23
 72
     6
 73
     7
  0
VERTEX
  5
1525
330
1509
100
AcDbEntity
  8
1660.241
100
AcDbFaceRecord
 10
0.0
 20
0.0
 30
0.0
 70
   128
 71
   -15
 72
    16
 73
    -9
 74
     4
  0
VERTEX
  5
1526
330
1509
100
AcDbEntity
  8
1660.241
100
AcDbFaceRecord
 10
0.0
 20
0.0
 30
0.0
 70
   128
 71
   -16
 72
    15
 73
    -5
 74
     8
  0
VERTEX
  5
1527
330
1509
100
AcDbEntity
  8
1660.241
100
AcDbFaceRecord
 10
0.0
 20
0.0
 30
0.0
 70
   128
 71
   -24
 72
    12
 73
     1
  0
VERTEX
  5
1528
330
1509
100
AcDbEntity
  8
1660.241
100
AcDbFaceRecord
 10
0.0
 20
0.0
 30
0.0
 70
   128
 71
   -17
 72
    18
 73
   -10
 74
     3
  0
VERTEX
  5
1529
330
1509
100
AcDbEntity
  8
1660.241
100
AcDbFaceRecord
 10
0.0
 20
0.0
 30
0.0
 70
   128
 71
   -19
 72
    20
 73
   -11
 74
     2
  0
VERTEX
  5
152A
330
1509
100
AcDbEntity
  8
1660.241
100
AcDbFaceRecord
 10
0.0
 20
0.0
 30
0.0
 70
   128
 71
   -12
 72
   -24
 73
    22
  0
VERTEX
  5
152B
330
1509
100
AcDbEntity
  8
1660.241
100
AcDbFaceRecord
 10
0.0
 20
0.0
 30
0.0
 70
   128
 71
   -20
 72
    19
 73
    -3
 74
    10
  0
VERTEX
  5
152C
330
1509
100
AcDbEntity
  8
1660.241
100
AcDbFaceRecord
 10
0.0
 20
0.0
 30
0.0
 70
   128
 71
    -6
 72
   -23
 73
    14
  0
VERTEX
  5
152D
330
1509
100
AcDbEntity
  8
1660.241
100
AcDbFaceRecord
 10
0.0
 20
0.0
 30
0.0
 70
   128
 71
   -11
 72
    21
 73
    -2
  0
VERTEX
  5
152E
330
1509
100
AcDbEntity
  8
1660.241
100
AcDbFaceRecord
 10
0.0
 20
0.0
 30
0.0
 70
   128
 71
   -13
 72
     5
 73
   -14
  0
VERTEX
  5
152F
330
1509
100
AcDbEntity
  8
1660.241
100
AcDbFaceRecord
 10
0.0
 20
0.0
 30
0.0
 70
   128
 71
    -4
 72
     9
 73
   -18
 74
    17
  0
VERTEX
  5
1530
330
1509
100
AcDbEntity
  8
1660.241
100
AcDbFaceRecord
 10
0.0
 20
0.0
 30
0.0
 70
   128
 71
   -21
 72
    11
 73
   -22
  0
VERTEX
  5
1531
330
1509
100
AcDbEntity
  8
1660.241
100
AcDbFaceRecord
 10
0.0
 20
0.0
 30
0.0
 70
   128
 71
    24
 72
   -21
 73
   -22
  0
SEQEND
  5
1532
330
1509
100
AcDbEntity
  8
1660.241
  0
ENDBLK
  5
8DC
330
8DA
100
AcDbEntity
  8
0
100
AcDbBlockEnd
  0
ENDSEC
  0
SECTION
  2
ENTITIES
  0
INSERT
  5
CF5
330
70
100
AcDbEntity
  8
1660.241
100
AcDbBlockReference
  2
AMSTD_Modern_1660.241_3D
 10
0.0000000000002539
 20
-1.000000029802321
 30
-0.0000000000000714
  0
ENDSEC
  0
SECTION
  2
OBJECTS
  0
DICTIONARY
  5
C
330
0
100
AcDbDictionary
281
     1
  3
ACAD_BACKGROUND
350
4B9
  3
ACAD_CIP_PREVIOUS_PRODUCT_INFO
350
79
  3
ACAD_COLOR
350
63
  3
ACAD_DETAILVIEWSTYLE
350
6A
  3
ACAD_GROUP
350
D
  3
ACAD_IMAGE_VARS
350
7A
  3
ACAD_LAYOUT
350
62
  3
ACAD_MATERIAL
350
10
  3
ACAD_MLEADERSTYLE
350
66
  3
ACAD_MLINESTYLE
350
5F
  3
ACAD_PLOTSETTINGS
350
61
  3
ACAD_PLOTSTYLENAME
350
E
  3
ACAD_SCALELIST
350
42
  3
ACAD_SECTIONVIEWSTYLE
350
68
  3
ACAD_TABLESTYLE
350
64
  3
ACAD_VISUALSTYLE
350
29
  3
ACDB_RECOMPOSE_DATA
350
1542
  3
AcDbVariableDictionary
350
4AF
  3
REVIT_DICTIONARY
350
4A7
  0
DICTIONARY
  5
8D8
330
70
100
AcDbDictionary
280
     1
281
     1
  3
ACAD_SORTENTS
360
8D9
  0
DICTIONARY
  5
1533
330
8DA
100
AcDbDictionary
280
     1
281
     1
  0
DICTIONARY
  5
4B9
102
{ACAD_REACTORS
330
C
102
}
330
C
100
AcDbDictionary
281
     1
  0
XRECORD
  5
79
102
{ACAD_REACTORS
330
C
102
}
330
C
100
AcDbXrecord
280
     1
300
ARCHDESK
300
2014
300
86137ARCHDESK_2014_0F
  0
DICTIONARY
  5
63
102
{ACAD_REACTORS
330
C
102
}
330
C
100
AcDbDictionary
281
     1
  0
DICTIONARY
  5
6A
102
{ACAD_REACTORS
330
C
102
}
330
C
100
AcDbDictionary
281
     1
  3
Imperial24
350
6B
  0
DICTIONARY
  5
D
102
{ACAD_REACTORS
330
C
102
}
330
C
100
AcDbDictionary
281
     1
  0
RASTERVARIABLES
  5
7A
102
{ACAD_REACTORS
330
C
102
}
330
C
100
AcDbRasterVariables
 90
        0
 70
     0
 71
     1
 72
     5
  0
DICTIONARY
  5
62
102
{ACAD_REACTORS
330
C
102
}
330
C
100
AcDbDictionary
281
     1
  3
Layout1
350
6F
  3
Layout2
350
77
  3
Model
350
73
  0
DICTIONARY
  5
10
102
{ACAD_REACTORS
330
C
102
}
330
C
100
AcDbDictionary
281
     1
  3
ByBlock
350
19
  3
ByLayer
350
11
  3
Global
350
21
  0
DICTIONARY
  5
66
102
{ACAD_REACTORS
330
C
102
}
330
C
100
AcDbDictionary
281
     1
  3
Standard
350
67
  0
DICTIONARY
  5
5F
102
{ACAD_REACTORS
330
C
102
}
330
C
100
AcDbDictionary
281
     1
  3
Standard
350
60
  0
DICTIONARY
  5
61
102
{ACAD_REACTORS
330
C
102
}
330
C
100
AcDbDictionary
281
     1
  0
ACDBDICTIONARYWDFLT
  5
E
102
{ACAD_REACTORS
330
C
102
}
330
C
100
AcDbDictionary
281
     1
  3
Normal
350
F
100
AcDbDictionaryWithDefault
340
F
  0
DICTIONARY
  5
42
102
{ACAD_REACTORS
330
C
102
}
330
C
100
AcDbDictionary
281
     1
  3
A0
350
43
  3
A1
350
44
  3
A2
350
45
  3
A3
350
46
  3
A4
350
47
  3
A5
350
48
  3
A6
350
49
  3
A7
350
4A
  3
A8
350
4B
  3
A9
350
4C
  3
B0
350
4D
  3
B1
350
4E
  3
B2
350
4F
  3
B3
350
50
  3
B4
350
51
  3
B5
350
52
  3
B6
350
53
  0
DICTIONARY
  5
68
102
{ACAD_REACTORS
330
C
102
}
330
C
100
AcDbDictionary
281
     1
  3
Imperial24
350
69
  0
DICTIONARY
  5
64
102
{ACAD_REACTORS
330
C
102
}
330
C
100
AcDbDictionary
281
     1
  3
Standard
350
65
  0
DICTIONARY
  5
29
102
{ACAD_REACTORS
330
C
102
}
330
C
100
AcDbDictionary
281
     1
  3
2dWireframe
350
2F
  3
Basic
350
2E
  3
Brighten
350
35
  3
ColorChange
350
39
  3
Conceptual
350
32
  3
Dim
350
34
  3
EdgeColorOff
350
41
  3
Facepattern
350
38
  3
Flat
350
2A
  3
FlatWithEdges
350
2B
  3
Gouraud
350
2C
  3
GouraudWithEdges
350
2D
  3
Hidden
350
31
  3
JitterOff
350
3F
  3
Linepattern
350
37
  3
OverhangOff
350
40
  3
Realistic
350
33
  3
Shaded
350
3E
  3
Shaded with edges
350
3D
  3
Shades of Gray
350
3A
  3
Sketchy
350
3B
  3
Thicken
350
36
  3
Wireframe
350
30
  3
X-Ray
350
3C
  0
XRECORD
  5
1542
102
{ACAD_REACTORS
330
C
102
}
330
C
100
AcDbXrecord
280
     1
 90
        1
330
65
330
69
330
6B
  0
DICTIONARY
  5
4AF
102
{ACAD_REACTORS
330
C
102
}
330
C
100
AcDbDictionary
281
     1
  3
CANNOSCALE
350
4B4
  3
CMLEADERSTYLE
350
4B1
  3
CTABLESTYLE
350
4B0
  3
CVIEWDETAILSTYLE
350
4B2
  3
CVIEWSECTIONSTYLE
350
4B3
  0
DICTIONARY
  5
4A7
102
{ACAD_REACTORS
330
C
102
}
330
C
100
AcDbDictionary
281
     1
  3
DRAWING_TOOL
350
4A9
  3
REVIT_CATEGORY_MAPPING
350
4A8
  0
SORTENTSTABLE
  5
8D9
102
{ACAD_REACTORS
330
8D8
102
}
330
8D8
100
AcDbSortentsTable
330
70
  0
ACDBDETAILVIEWSTYLE
  5
6B
102
{ACAD_XDICTIONARY
360
4AC
102
}
102
{ACAD_REACTORS
330
6A
102
}
330
6A
100
AcDbModelDocViewStyle
 70
     0
  3
Imperial24
290
     0
100
AcDbDetailViewStyle
 70
     0
 71
     0
 90
        3
 71
     1
340
55
 62
   256
 40
0.24
340
0
 62
   256
 40
0.24
300

 40
0.36
280
     3
 71
     2
340
5D
 90
       25
 62
   256
 71
     3
340
55
 62
   256
 40
0.24
 90
        1
 40
0.75
 90
        1
300
%<\AcVar ViewType \f "%tc1">% %<\AcVar ViewDetailId>%\PSCALE %<\AcVar ViewScale \f "%sn">%
 71
     4
340
5D
 90
       25
 62
   256
340
5D
 90
       25
 62
   256
280
     0
  0
LAYOUT
  5
6F
102
{ACAD_REACTORS
330
62
102
}
330
62
100
AcDbPlotSettings
  1

  2

  4

  6

 40
0.0
 41
0.0
 42
0.0
 43
0.0
 44
0.0
 45
0.0
 46
0.0
 47
0.0
 48
0.0
 49
0.0
140
0.0
141
0.0
142
1.0
143
1.0
 70
   688
 72
     0
 73
     0
 74
     5
  7

 75
    16
147
1.0
 76
     0
 77
     2
 78
   300
148
0.0
149
0.0
100
AcDbLayout
  1
Layout1
 70
     1
 71
     1
 10
0.0
 20
0.0
 11
12.0
 21
9.0
 12
0.0
 22
0.0
 32
0.0
 14
1.000000000000000E+20
 24
1.000000000000000E+20
 34
1.000000000000000E+20
 15
-1.000000000000000E+20
 25
-1.000000000000000E+20
 35
-1.000000000000000E+20
146
0.0
 13
0.0
 23
0.0
 33
0.0
 16
1.0
 26
0.0
 36
0.0
 17
0.0
 27
1.0
 37
0.0
 76
     0
330
6C
  0
LAYOUT
  5
77
102
{ACAD_REACTORS
330
62
102
}
330
62
100
AcDbPlotSettings
  1

  2

  4

  6

 40
0.0
 41
0.0
 42
0.0
 43
0.0
 44
0.0
 45
0.0
 46
0.0
 47
0.0
 48
0.0
 49
0.0
140
0.0
141
0.0
142
1.0
143
1.0
 70
   688
 72
     0
 73
     0
 74
     5
  7

 75
    16
147
1.0
 76
     0
 77
     2
 78
   300
148
0.0
149
0.0
100
AcDbLayout
  1
Layout2
 70
     1
 71
     2
 10
0.0
 20
0.0
 11
12.0
 21
9.0
 12
0.0
 22
0.0
 32
0.0
 14
0.0
 24
0.0
 34
0.0
 15
0.0
 25
0.0
 35
0.0
146
0.0
 13
0.0
 23
0.0
 33
0.0
 16
1.0
 26
0.0
 36
0.0
 17
0.0
 27
1.0
 37
0.0
 76
     0
330
74
  0
LAYOUT
  5
73
102
{ACAD_REACTORS
330
62
102
}
330
62
100
AcDbPlotSettings
  1

  2

  4

  6

 40
0.0
 41
0.0
 42
0.0
 43
0.0
 44
0.0
 45
0.0
 46
0.0
 47
0.0
 48
0.0
 49
0.0
140
0.0
141
0.0
142
1.0
143
1.0
 70
  1712
 72
     0
 73
     0
 74
     0
  7

 75
     0
147
1.0
 76
     0
 77
     2
 78
   300
148
0.0
149
0.0
100
AcDbLayout
  1
Model
 70
     1
 71
     0
 10
0.0
 20
0.0
 11
12.0
 21
9.0
 12
0.0
 22
0.0
 32
0.0
 14
0.0
 24
0.0
 34
0.0
 15
0.0
 25
0.0
 35
0.0
146
0.0
 13
0.0
 23
0.0
 33
0.0
 16
1.0
 26
0.0
 36
0.0
 17
0.0
 27
1.0
 37
0.0
 76
     0
330
70
331
57
  0
MATERIAL
  5
19
102
{ACAD_XDICTIONARY
360
1A
102
}
102
{ACAD_REACTORS
330
10
102
}
330
10
100
AcDbMaterial
  1
ByBlock
 72
     0
 43
0.0208333333333333
 43
0.0
 43
0.0
 43
0.0
 43
0.0
 43
0.0208333333333333
 43
0.0
 43
0.0
 43
0.0
 43
0.0
 43
1.0
 43
0.0
 43
0.0
 43
0.0
 43
0.0
 43
1.0
 77
     0
 47
0.0208333333333333
 47
0.0
 47
0.0
 47
0.0
 47
0.0
 47
0.0208333333333333
 47
0.0
 47
0.0
 47
0.0
 47
0.0
 47
1.0
 47
0.0
 47
0.0
 47
0.0
 47
0.0
 47
1.0
171
     0
 49
0.0208333333333333
 49
0.0
 49
0.0
 49
0.0
 49
0.0
 49
0.0208333333333333
 49
0.0
 49
0.0
 49
0.0
 49
0.0
 49
1.0
 49
0.0
 49
0.0
 49
0.0
 49
0.0
 49
1.0
175
     0
142
0.0208333333333333
142
0.0
142
0.0
142
0.0
142
0.0
142
0.0208333333333333
142
0.0
142
0.0
142
0.0
142
0.0
142
1.0
142
0.0
142
0.0
142
0.0
142
0.0
142
1.0
179
     0
144
0.0208333333333333
144
0.0
144
0.0
144
0.0
144
0.0
144
0.0208333333333333
144
0.0
144
0.0
144
0.0
144
0.0
144
1.0
144
0.0
144
0.0
144
0.0
144
0.0
144
1.0
147
0.0208333333333333
147
0.0
147
0.0
147
0.0
147
0.0
147
0.0208333333333333
147
0.0
147
0.0
147
0.0
147
0.0
147
1.0
147
0.0
147
0.0
147
0.0
147
0.0
147
1.0
  0
MATERIAL
  5
11
102
{ACAD_XDICTIONARY
360
12
102
}
102
{ACAD_REACTORS
330
10
102
}
330
10
100
AcDbMaterial
  1
ByLayer
 72
     0
 43
0.0208333333333333
 43
0.0
 43
0.0
 43
0.0
 43
0.0
 43
0.0208333333333333
 43
0.0
 43
0.0
 43
0.0
 43
0.0
 43
1.0
 43
0.0
 43
0.0
 43
0.0
 43
0.0
 43
1.0
 77
     0
 47
0.0208333333333333
 47
0.0
 47
0.0
 47
0.0
 47
0.0
 47
0.0208333333333333
 47
0.0
 47
0.0
 47
0.0
 47
0.0
 47
1.0
 47
0.0
 47
0.0
 47
0.0
 47
0.0
 47
1.0
171
     0
 49
0.0208333333333333
 49
0.0
 49
0.0
 49
0.0
 49
0.0
 49
0.0208333333333333
 49
0.0
 49
0.0
 49
0.0
 49
0.0
 49
1.0
 49
0.0
 49
0.0
 49
0.0
 49
0.0
 49
1.0
175
     0
142
0.0208333333333333
142
0.0
142
0.0
142
0.0
142
0.0
142
0.0208333333333333
142
0.0
142
0.0
142
0.0
142
0.0
142
1.0
142
0.0
142
0.0
142
0.0
142
0.0
142
1.0
179
     0
144
0.0208333333333333
144
0.0
144
0.0
144
0.0
144
0.0
144
0.0208333333333333
144
0.0
144
0.0
144
0.0
144
0.0
144
1.0
144
0.0
144
0.0
144
0.0
144
0.0
144
1.0
147
0.0208333333333333
147
0.0
147
0.0
147
0.0
147
0.0
147
0.0208333333333333
147
0.0
147
0.0
147
0.0
147
0.0
147
1.0
147
0.0
147
0.0
147
0.0
147
0.0
147
1.0
  0
MATERIAL
  5
21
102
{ACAD_XDICTIONARY
360
22
102
}
102
{ACAD_REACTORS
330
10
102
}
330
10
100
AcDbMaterial
  1
Global
 72
     0
 43
0.0208333333333333
 43
0.0
 43
0.0
 43
0.0
 43
0.0
 43
0.0208333333333333
 43
0.0
 43
0.0
 43
0.0
 43
0.0
 43
1.0
 43
0.0
 43
0.0
 43
0.0
 43
0.0
 43
1.0
 77
     0
 47
0.0208333333333333
 47
0.0
 47
0.0
 47
0.0
 47
0.0
 47
0.0208333333333333
 47
0.0
 47
0.0
 47
0.0
 47
0.0
 47
1.0
 47
0.0
 47
0.0
 47
0.0
 47
0.0
 47
1.0
171
     0
 49
0.0208333333333333
 49
0.0
 49
0.0
 49
0.0
 49
0.0
 49
0.0208333333333333
 49
0.0
 49
0.0
 49
0.0
 49
0.0
 49
1.0
 49
0.0
 49
0.0
 49
0.0
 49
0.0
 49
1.0
175
     0
142
0.0208333333333333
142
0.0
142
0.0
142
0.0
142
0.0
142
0.0208333333333333
142
0.0
142
0.0
142
0.0
142
0.0
142
1.0
142
0.0
142
0.0
142
0.0
142
0.0
142
1.0
179
     0
144
0.0208333333333333
144
0.0
144
0.0
144
0.0
144
0.0
144
0.0208333333333333
144
0.0
144
0.0
144
0.0
144
0.0
144
1.0
144
0.0
144
0.0
144
0.0
144
0.0
144
1.0
147
0.0208333333333333
147
0.0
147
0.0
147
0.0
147
0.0
147
0.0208333333333333
147
0.0
147
0.0
147
0.0
147
0.0
147
1.0
147
0.0
147
0.0
147
0.0
147
0.0
147
1.0
  0
MLEADERSTYLE
  5
67
102
{ACAD_REACTORS
330
66
102
}
330
66
100
AcDbMLeaderStyle
179
     2
170
     2
171
     1
172
     0
 90
        2
 40
0.0
 41
0.0
173
     1
 91
-1056964608
340
5B
 92
       -2
290
     1
 42
0.09
291
     1
 43
0.36
  3
Standard
 44
0.18
300

342
55
174
     1
178
     6
175
     1
176
     0
 93
-1056964608
 45
0.18
292
     0
297
     0
 46
0.18
 94
-1056964608
 47
1.0
 49
1.0
140
1.0
293
     1
141
0.0
294
     1
177
     0
142
1.0
295
     1
296
     0
143
0.125
271
     0
272
     9
273
     9
298
     1
  0
MLINESTYLE
  5
60
102
{ACAD_REACTORS
330
5F
102
}
330
5F
100
AcDbMlineStyle
  2
STANDARD
 70
     0
  3

 62
   256
 51
90.0
 52
90.0
 71
     2
 49
0.5
 62
   256
  6
BYLAYER
 49
-0.5
 62
   256
  6
BYLAYER
  0
ACDBPLACEHOLDER
  5
F
102
{ACAD_REACTORS
330
E
102
}
330
E
  0
SCALE
  5
43
102
{ACAD_REACTORS
330
42
102
}
330
42
100
AcDbScale
 70
     0
300
1:1
140
1.0
141
1.0
290
     1
  0
SCALE
  5
44
102
{ACAD_REACTORS
330
42
102
}
330
42
100
AcDbScale
 70
     0
300
1/128" = 1'-0"
140
0.0078125
141
12.0
290
     0
  0
SCALE
  5
45
102
{ACAD_REACTORS
330
42
102
}
330
42
100
AcDbScale
 70
     0
300
1/64" = 1'-0"
140
0.015625
141
12.0
290
     0
  0
SCALE
  5
46
102
{ACAD_REACTORS
330
42
102
}
330
42
100
AcDbScale
 70
     0
300
1/32" = 1'-0"
140
0.03125
141
12.0
290
     0
  0
SCALE
  5
47
102
{ACAD_REACTORS
330
42
102
}
330
42
100
AcDbScale
 70
     0
300
1/16" = 1'-0"
140
0.0625
141
12.0
290
     0
  0
SCALE
  5
48
102
{ACAD_REACTORS
330
42
102
}
330
42
100
AcDbScale
 70
     0
300
3/32" = 1'-0"
140
0.09375
141
12.0
290
     0
  0
SCALE
  5
49
102
{ACAD_REACTORS
330
42
102
}
330
42
100
AcDbScale
 70
     0
300
1/8" = 1'-0"
140
0.125
141
12.0
290
     0
  0
SCALE
  5
4A
102
{ACAD_REACTORS
330
42
102
}
330
42
100
AcDbScale
 70
     0
300
3/16" = 1'-0"
140
0.1875
141
12.0
290
     0
  0
SCALE
  5
4B
102
{ACAD_REACTORS
330
42
102
}
330
42
100
AcDbScale
 70
     0
300
1/4" = 1'-0"
140
0.25
141
12.0
290
     0
  0
SCALE
  5
4C
102
{ACAD_REACTORS
330
42
102
}
330
42
100
AcDbScale
 70
     0
300
3/8" = 1'-0"
140
0.375
141
12.0
290
     0
  0
SCALE
  5
4D
102
{ACAD_REACTORS
330
42
102
}
330
42
100
AcDbScale
 70
     0
300
1/2" = 1'-0"
140
0.5
141
12.0
290
     0
  0
SCALE
  5
4E
102
{ACAD_REACTORS
330
42
102
}
330
42
100
AcDbScale
 70
     0
300
3/4" = 1'-0"
140
0.75
141
12.0
290
     0
  0
SCALE
  5
4F
102
{ACAD_REACTORS
330
42
102
}
330
42
100
AcDbScale
 70
     0
300
1" = 1'-0"
140
1.0
141
12.0
290
     0
  0
SCALE
  5
50
102
{ACAD_REACTORS
330
42
102
}
330
42
100
AcDbScale
 70
     0
300
1-1/2" = 1'-0"
140
1.5
141
12.0
290
     0
  0
SCALE
  5
51
102
{ACAD_REACTORS
330
42
102
}
330
42
100
AcDbScale
 70
     0
300
3" = 1'-0"
140
3.0
141
12.0
290
     0
  0
SCALE
  5
52
102
{ACAD_REACTORS
330
42
102
}
330
42
100
AcDbScale
 70
     0
300
6" = 1'-0"
140
6.0
141
12.0
290
     0
  0
SCALE
  5
53
102
{ACAD_REACTORS
330
42
102
}
330
42
100
AcDbScale
 70
     0
300
1'-0" = 1'-0"
140
12.0
141
12.0
290
     0
  0
ACDBSECTIONVIEWSTYLE
  5
69
102
{ACAD_XDICTIONARY
360
4AA
102
}
102
{ACAD_REACTORS
330
68
102
}
330
68
100
AcDbModelDocViewStyle
 70
     0
  3
Imperial24
290
     0
100
AcDbSectionViewStyle
 70
     0
 71
     0
 90
       78
 71
     1
340
55
 62
   256
 40
0.24
340
0
340
0
 62
   256
 40
0.24
300
I, O, Q, S, X, Z
 40
0.48
 90
        3
 40
0.18
 90
        1
 71
     2
340
5D
 90
       25
 62
   256
340
5D
 90
       50
 62
   256
 40
0.24
 40
0.0
 40
0.24
 71
     3
340
55
 62
   256
 40
0.24
 90
        1
 40
0.75
 90
        1
300
%<\AcVar ViewType \f "%tc1">% %<\AcVar ViewSectionStartId>%-%<\AcVar ViewSectionEndId>%\PSCALE %<\AcVar ViewScale \f "%sn">%
 71
     4
 62
   256
 62
   257
300
ANSI31
 40
1.0
 90
        0
290
     0
290
     0
 90
        6
 40
0.0
 40
1.570796326794896
 40
0.2617993877991494
 40
1.308996938995747
 40
-0.2617993877991494
 40
1.832595714594046
  0
TABLESTYLE
  5
65
102
{ACAD_XDICTIONARY
360
153E
102
}
102
{ACAD_REACTORS
330
64
102
}
330
64
100
AcDbTableStyle
280
     0
  3
Standard
 70
     0
 71
     0
 40
0.06
 41
0.06
280
     0
281
     0
  7
Standard
140
0.18
170
     2
 62
     0
 63
     7
283
     0
 90
      512
 91
        0
  1

274
    -2
284
     1
 64
     0
275
    -2
285
     1
 65
     0
276
    -2
286
     1
 66
     0
277
    -2
287
     1
 67
     0
278
    -2
288
     1
 68
     0
279
    -2
289
     1
 69
     0
  7
Standard
140
0.25
170
     5
 62
     0
 63
     7
283
     0
 90
      512
 91
        0
  1

274
    -2
284
     1
 64
     0
275
    -2
285
     1
 65
     0
276
    -2
286
     1
 66
     0
277
    -2
287
     1
 67
     0
278
    -2
288
     1
 68
     0
279
    -2
289
     1
 69
     0
  7
Standard
140
0.18
170
     5
 62
     0
 63
     7
283
     0
 90
      512
 91
        0
  1

274
    -2
284
     1
 64
     0
275
    -2
285
     1
 65
     0
276
    -2
286
     1
 66
     0
277
    -2
287
     1
 67
     0
278
    -2
288
     1
 68
     0
279
    -2
289
     1
 69
     0
  0
VISUALSTYLE
  5
2F
102
{ACAD_REACTORS
330
29
102
}
330
29
100
AcDbVisualStyle
  2
2dWireframe
 70
     4
177
     3
291
     0
 70
    58
 90
        0
176
     1
 90
        2
176
     1
 90
        0
176
     1
 90
        0
176
     1
 40
0.6
176
     1
 40
30.0
176
     1
 62
     7
420
 16777215
176
     1
 90
        1
176
     1
 90
        4
176
     1
 62
     7
176
     1
 62
   257
176
     1
 90
        1
176
     1
 90
        1
176
     1
 40
1.0
176
     1
 90
        0
176
     1
 62
   257
176
     1
 40
1.0
176
     1
 90
        1
176
     1
 90
        6
176
     1
 90
        2
176
     1
 62
     7
176
     1
 90
        5
176
     1
 90
        0
176
     1
 90
        0
176
     1
290
     0
176
     1
 90
        1
176
     1
 40
0.0
176
     1
 90
        0
176
     1
290
     1
176
     1
290
     1
176
     1
290
     0
176
     1
290
     0
176
     1
290
     0
176
     1
290
     0
176
     1
290
     0
176
     1
290
     0
176
     1
290
     0
176
     1
 90
       50
176
     1
 40
0.0
176
     1
 40
1.0
176
     1
 90
        0
176
     1
 62
    18
420
        0
176
     1
 90
       50
176
     1
 90
        3
176
     1
 62
     5
420
      255
176
     1
290
     0
176
     1
 90
       50
176
     1
 90
       50
176
     1
 90
       50
176
     1
290
     0
176
     1
 90
       50
176
     1
 62
   256
176
     0
 40
1.0
176
     0
 90
        2
176
     1
  1
strokes_ogs.tif
176
     1
290
     0
176
     1
 40
1.0
176
     1
 40
1.0
176
     1
  0
VISUALSTYLE
  5
2E
102
{ACAD_REACTORS
330
29
102
}
330
29
100
AcDbVisualStyle
  2
Basic
 70
     7
177
     3
291
     1
 70
    58
 90
        1
176
     1
 90
        0
176
     1
 90
        1
176
     1
 90
        0
176
     1
 40
0.6
176
     1
 40
30.0
176
     1
 62
     7
420
 16777215
176
     1
 90
        0
176
     1
 90
        4
176
     1
 62
     7
176
     1
 62
   257
176
     1
 90
        1
176
     1
 90
        1
176
     1
 40
1.0
176
     1
 90
        8
176
     1
 62
     7
176
     1
 40
1.0
176
     1
 90
        1
176
     1
 90
        6
176
     1
 90
        2
176
     1
 62
     7
176
     1
 90
        5
176
     1
 90
        0
176
     1
 90
        0
176
     1
290
     0
176
     1
 90
        1
176
     1
 40
0.0
176
     1
 90
        0
176
     1
290
     0
176
     1
290
     1
176
     1
290
     1
176
     1
290
     0
176
     1
290
     0
176
     1
290
     0
176
     1
290
     0
176
     1
290
     0
176
     1
290
     0
176
     1
 90
       50
176
     1
 40
0.0
176
     1
 40
1.0
176
     1
 90
        0
176
     1
 62
    18
420
        0
176
     1
 90
       50
176
     1
 90
        3
176
     1
 62
     5
420
      255
176
     1
290
     0
176
     1
 90
       50
176
     1
 90
       50
176
     1
 90
       50
176
     1
290
     0
176
     1
 90
       50
176
     1
 62
   256
176
     0
 40
1.0
176
     0
 90
        2
176
     1
  1
strokes_ogs.tif
176
     1
290
     0
176
     1
 40
1.0
176
     1
 40
1.0
176
     1
  0
VISUALSTYLE
  5
35
102
{ACAD_REACTORS
330
29
102
}
330
29
100
AcDbVisualStyle
  2
Brighten
 70
    12
177
     3
291
     1
 70
    58
 90
        2
176
     1
 90
        2
176
     1
 90
        0
176
     1
 90
        0
176
     1
 40
0.6
176
     1
 40
30.0
176
     1
 62
     7
420
 16777215
176
     1
 90
        1
176
     1
 90
        4
176
     1
 62
     7
176
     1
 62
   257
176
     1
 90
        1
176
     1
 90
        1
176
     1
 40
1.0
176
     1
 90
        8
176
     1
 62
     7
176
     1
 40
1.0
176
     1
 90
        1
176
     1
 90
        6
176
     1
 90
        2
176
     1
 62
     7
176
     1
 90
        5
176
     1
 90
        0
176
     1
 90
        0
176
     1
290
     0
176
     1
 90
        1
176
     1
 40
50.0
176
     1
 90
        0
176
     1
290
     0
176
     1
290
     1
176
     1
290
     1
176
     1
290
     0
176
     1
290
     0
176
     1
290
     0
176
     1
290
     0
176
     1
290
     0
176
     1
290
     0
176
     1
 90
       50
176
     1
 40
0.0
176
     1
 40
1.0
176
     1
 90
        0
176
     1
 62
    18
420
        0
176
     1
 90
       50
176
     1
 90
        3
176
     1
 62
     5
420
      255
176
     1
290
     0
176
     1
 90
       50
176
     1
 90
       50
176
     1
 90
       50
176
     1
290
     0
176
     1
 90
       50
176
     1
 62
   256
176
     0
 40
1.0
176
     0
 90
        2
176
     1
  1
strokes_ogs.tif
176
     1
290
     0
176
     1
 40
1.0
176
     1
 40
1.0
176
     1
  0
VISUALSTYLE
  5
39
102
{ACAD_REACTORS
330
29
102
}
330
29
100
AcDbVisualStyle
  2
ColorChange
 70
    16
177
     3
291
     1
 70
    58
 90
        2
176
     1
 90
        2
176
     1
 90
        3
176
     1
 90
        0
176
     1
 40
0.6
176
     1
 40
30.0
176
     1
 62
     8
420
  8421504
176
     1
 90
        1
176
     1
 90
        4
176
     1
 62
     7
176
     1
 62
   257
176
     1
 90
        1
176
     1
 90
        1
176
     1
 40
1.0
176
     1
 90
        8
176
     1
 62
     8
420
  8421504
176
     1
 40
1.0
176
     1
 90
        1
176
     1
 90
        6
176
     1
 90
        2
176
     1
 62
     7
176
     1
 90
        5
176
     1
 90
        0
176
     1
 90
        0
176
     1
290
     0
176
     1
 90
        1
176
     1
 40
0.0
176
     1
 90
        0
176
     1
290
     0
176
     1
290
     1
176
     1
290
     1
176
     1
290
     0
176
     1
290
     0
176
     1
290
     0
176
     1
290
     0
176
     1
290
     0
176
     1
290
     0
176
     1
 90
       50
176
     1
 40
0.0
176
     1
 40
1.0
176
     1
 90
        0
176
     1
 62
    18
420
        0
176
     1
 90
       50
176
     1
 90
        3
176
     1
 62
     5
420
      255
176
     1
290
     0
176
     1
 90
       50
176
     1
 90
       50
176
     1
 90
       50
176
     1
290
     0
176
     1
 90
       50
176
     1
 62
   256
176
     0
 40
1.0
176
     0
 90
        2
176
     1
  1
strokes_ogs.tif
176
     1
290
     0
176
     1
 40
1.0
176
     1
 40
1.0
176
     1
  0
VISUALSTYLE
  5
32
102
{ACAD_REACTORS
330
29
102
}
330
29
100
AcDbVisualStyle
  2
Conceptual
 70
     9
177
     3
291
     0
 70
    58
 90
        3
176
     1
 90
        2
176
     1
 90
        0
176
     1
 90
        0
176
     1
 40
0.6
176
     1
 40
30.0
176
     1
 62
     7
420
 16777215
176
     1
 90
        2
176
     1
 90
        2
176
     1
 62
     7
176
     1
 62
   257
176
     1
 90
        1
176
     1
 90
        1
176
     1
 40
179.0
176
     1
 90
        8
176
     1
 62
     7
176
     1
 40
1.0
176
     1
 90
        1
176
     1
 90
        6
176
     1
 90
        2
176
     1
 62
     7
176
     1
 90
        3
176
     1
 90
        0
176
     1
 90
        0
176
     1
290
     0
176
     1
 90
        1
176
     1
 40
0.0
176
     1
 90
        0
176
     1
290
     0
176
     1
290
     1
176
     1
290
     1
176
     1
290
     0
176
     1
290
     0
176
     1
290
     0
176
     1
290
     0
176
     1
290
     0
176
     1
290
     0
176
     1
 90
       50
176
     1
 40
0.0
176
     1
 40
1.0
176
     1
 90
        0
176
     1
 62
    18
420
        0
176
     1
 90
       50
176
     1
 90
        3
176
     1
 62
     5
420
      255
176
     1
290
     0
176
     1
 90
       50
176
     1
 90
       50
176
     1
 90
       50
176
     1
290
     0
176
     1
 90
       50
176
     1
 62
   256
176
     0
 40
1.0
176
     0
 90
        2
176
     1
  1
strokes_ogs.tif
176
     1
290
     0
176
     1
 40
1.0
176
     1
 40
1.0
176
     1
  0
VISUALSTYLE
  5
34
102
{ACAD_REACTORS
330
29
102
}
330
29
100
AcDbVisualStyle
  2
Dim
 70
    11
177
     3
291
     1
 70
    58
 90
        2
176
     1
 90
        2
176
     1
 90
        0
176
     1
 90
        0
176
     1
 40
0.6
176
     1
 40
30.0
176
     1
 62
     7
420
 16777215
176
     1
 90
        1
176
     1
 90
        4
176
     1
 62
     7
176
     1
 62
   257
176
     1
 90
        1
176
     1
 90
        1
176
     1
 40
1.0
176
     1
 90
        8
176
     1
 62
     7
176
     1
 40
1.0
176
     1
 90
        1
176
     1
 90
        6
176
     1
 90
        2
176
     1
 62
     7
176
     1
 90
        5
176
     1
 90
        0
176
     1
 90
        0
176
     1
290
     0
176
     1
 90
        1
176
     1
 40
-50.0
176
     1
 90
        0
176
     1
290
     0
176
     1
290
     1
176
     1
290
     1
176
     1
290
     0
176
     1
290
     0
176
     1
290
     0
176
     1
290
     0
176
     1
290
     0
176
     1
290
     0
176
     1
 90
       50
176
     1
 40
0.0
176
     1
 40
1.0
176
     1
 90
        0
176
     1
 62
    18
420
        0
176
     1
 90
       50
176
     1
 90
        3
176
     1
 62
     5
420
      255
176
     1
290
     0
176
     1
 90
       50
176
     1
 90
       50
176
     1
 90
       50
176
     1
290
     0
176
     1
 90
       50
176
     1
 62
   256
176
     0
 40
1.0
176
     0
 90
        2
176
     1
  1
strokes_ogs.tif
176
     1
290
     0
176
     1
 40
1.0
176
     1
 40
1.0
176
     1
  0
VISUALSTYLE
  5
41
102
{ACAD_REACTORS
330
29
102
}
330
29
100
AcDbVisualStyle
  2
EdgeColorOff
 70
    22
177
     3
291
     1
 70
    58
 90
        2
176
     0
 90
        2
176
     0
 90
        0
176
     0
 90
        0
176
     0
 40
0.6
176
     0
 40
30.0
176
     0
 62
     7
420
 16777215
176
     0
 90
        1
176
     0
 90
        4
176
     0
 62
     7
176
     0
 62
   257
176
     0
 90
        1
176
     0
 90
        1
176
     0
 40
1.0
176
     0
 90
        8
176
     2
 62
     7
176
     0
 40
1.0
176
     0
 90
        1
176
     0
 90
        6
176
     0
 90
        2
176
     0
 62
     7
176
     0
 90
        5
176
     0
 90
        0
176
     0
 90
        0
176
     0
290
     0
176
     0
 90
        1
176
     0
 40
0.0
176
     0
 90
        0
176
     0
290
     0
176
     0
290
     1
176
     0
290
     1
176
     0
290
     0
176
     0
290
     0
176
     0
290
     0
176
     0
290
     0
176
     0
290
     0
176
     0
290
     0
176
     0
 90
       50
176
     0
 40
0.0
176
     0
 40
1.0
176
     0
 90
        0
176
     0
 62
    18
420
        0
176
     0
 90
       50
176
     0
 90
        3
176
     0
 62
     5
420
      255
176
     0
290
     0
176
     0
 90
       50
176
     0
 90
       50
176
     0
 90
       50
176
     0
290
     0
176
     0
 90
       50
176
     0
 62
   256
176
     0
 40
1.0
176
     0
 90
        2
176
     0
  1
strokes_ogs.tif
176
     0
290
     0
176
     0
 40
1.0
176
     0
 40
1.0
176
     0
  0
VISUALSTYLE
  5
38
102
{ACAD_REACTORS
330
29
102
}
330
29
100
AcDbVisualStyle
  2
Facepattern
 70
    15
177
     3
291
     1
 70
    58
 90
        2
176
     1
 90
        2
176
     1
 90
        0
176
     1
 90
        0
176
     1
 40
0.6
176
     1
 40
30.0
176
     1
 62
     7
420
 16777215
176
     1
 90
        1
176
     1
 90
        4
176
     1
 62
     7
176
     1
 62
   257
176
     1
 90
        1
176
     1
 90
        1
176
     1
 40
1.0
176
     1
 90
        8
176
     1
 62
     7
176
     1
 40
1.0
176
     1
 90
        1
176
     1
 90
        6
176
     1
 90
        2
176
     1
 62
     7
176
     1
 90
        5
176
     1
 90
        0
176
     1
 90
        0
176
     1
290
     0
176
     1
 90
        1
176
     1
 40
0.0
176
     1
 90
        0
176
     1
290
     0
176
     1
290
     1
176
     1
290
     1
176
     1
290
     0
176
     1
290
     0
176
     1
290
     0
176
     1
290
     0
176
     1
290
     0
176
     1
290
     0
176
     1
 90
       50
176
     1
 40
0.0
176
     1
 40
1.0
176
     1
 90
        0
176
     1
 62
    18
420
        0
176
     1
 90
       50
176
     1
 90
        3
176
     1
 62
     5
420
      255
176
     1
290
     0
176
     1
 90
       50
176
     1
 90
       50
176
     1
 90
       50
176
     1
290
     0
176
     1
 90
       50
176
     1
 62
   256
176
     0
 40
1.0
176
     0
 90
        2
176
     1
  1
strokes_ogs.tif
176
     1
290
     0
176
     1
 40
1.0
176
     1
 40
1.0
176
     1
  0
VISUALSTYLE
  5
2A
102
{ACAD_REACTORS
330
29
102
}
330
29
100
AcDbVisualStyle
  2
Flat
 70
     0
177
     3
291
     1
 70
    58
 90
        2
176
     1
 90
        1
176
     1
 90
        1
176
     1
 90
        2
176
     1
 40
0.6
176
     1
 40
30.0
176
     1
 62
     7
420
 16777215
176
     1
 90
        0
176
     1
 90
        0
176
     1
 62
     7
176
     1
 62
   257
176
     1
 90
        1
176
     1
 90
        1
176
     1
 40
1.0
176
     1
 90
        8
176
     1
 62
     7
176
     1
 40
1.0
176
     1
 90
        1
176
     1
 90
        6
176
     1
 90
        2
176
     1
 62
     7
176
     1
 90
        5
176
     1
 90
        0
176
     1
 90
        0
176
     1
290
     0
176
     1
 90
       13
176
     1
 40
0.0
176
     1
 90
        0
176
     1
290
     0
176
     1
290
     1
176
     1
290
     1
176
     1
290
     0
176
     1
290
     0
176
     1
290
     0
176
     1
290
     0
176
     1
290
     0
176
     1
290
     0
176
     1
 90
       50
176
     1
 40
0.0
176
     1
 40
1.0
176
     1
 90
        0
176
     1
 62
    18
420
        0
176
     1
 90
       50
176
     1
 90
        3
176
     1
 62
     5
420
      255
176
     1
290
     0
176
     1
 90
       50
176
     1
 90
       50
176
     1
 90
       50
176
     1
290
     0
176
     1
 90
       50
176
     1
 62
   256
176
     0
 40
1.0
176
     0
 90
        2
176
     1
  1
strokes_ogs.tif
176
     1
290
     0
176
     1
 40
1.0
176
     1
 40
1.0
176
     1
  0
VISUALSTYLE
  5
2B
102
{ACAD_REACTORS
330
29
102
}
330
29
100
AcDbVisualStyle
  2
FlatWithEdges
 70
     1
177
     3
291
     1
 70
    58
 90
        2
176
     1
 90
        1
176
     1
 90
        1
176
     1
 90
        2
176
     1
 40
0.6
176
     1
 40
30.0
176
     1
 62
     7
420
 16777215
176
     1
 90
        1
176
     1
 90
        0
176
     1
 62
     7
176
     1
 62
   257
176
     1
 90
        1
176
     1
 90
        1
176
     1
 40
1.0
176
     1
 90
        0
176
     1
 62
   257
176
     1
 40
1.0
176
     1
 90
        1
176
     1
 90
        6
176
     1
 90
        2
176
     1
 62
     7
176
     1
 90
        5
176
     1
 90
        0
176
     1
 90
        0
176
     1
290
     0
176
     1
 90
       13
176
     1
 40
0.0
176
     1
 90
        0
176
     1
290
     0
176
     1
290
     1
176
     1
290
     1
176
     1
290
     0
176
     1
290
     0
176
     1
290
     0
176
     1
290
     0
176
     1
290
     0
176
     1
290
     0
176
     1
 90
       50
176
     1
 40
0.0
176
     1
 40
1.0
176
     1
 90
        0
176
     1
 62
    18
420
        0
176
     1
 90
       50
176
     1
 90
        3
176
     1
 62
     5
420
      255
176
     1
290
     0
176
     1
 90
       50
176
     1
 90
       50
176
     1
 90
       50
176
     1
290
     0
176
     1
 90
       50
176
     1
 62
   256
176
     0
 40
1.0
176
     0
 90
        2
176
     1
  1
strokes_ogs.tif
176
     1
290
     0
176
     1
 40
1.0
176
     1
 40
1.0
176
     1
  0
VISUALSTYLE
  5
2C
102
{ACAD_REACTORS
330
29
102
}
330
29
100
AcDbVisualStyle
  2
Gouraud
 70
     2
177
     3
291
     1
 70
    58
 90
        2
176
     1
 90
        2
176
     1
 90
        1
176
     1
 90
        2
176
     1
 40
0.6
176
     1
 40
30.0
176
     1
 62
     7
420
 16777215
176
     1
 90
        0
176
     1
 90
        0
176
     1
 62
     7
176
     1
 62
   257
176
     1
 90
        1
176
     1
 90
        1
176
     1
 40
1.0
176
     1
 90
        0
176
     1
 62
     7
176
     1
 40
1.0
176
     1
 90
        1
176
     1
 90
        6
176
     1
 90
        2
176
     1
 62
     7
176
     1
 90
        5
176
     1
 90
        0
176
     1
 90
        0
176
     1
290
     0
176
     1
 90
       13
176
     1
 40
0.0
176
     1
 90
        0
176
     1
290
     0
176
     1
290
     1
176
     1
290
     1
176
     1
290
     0
176
     1
290
     0
176
     1
290
     0
176
     1
290
     0
176
     1
290
     0
176
     1
290
     0
176
     1
 90
       50
176
     1
 40
0.0
176
     1
 40
1.0
176
     1
 90
        0
176
     1
 62
    18
420
        0
176
     1
 90
       50
176
     1
 90
        3
176
     1
 62
     5
420
      255
176
     1
290
     0
176
     1
 90
       50
176
     1
 90
       50
176
     1
 90
       50
176
     1
290
     0
176
     1
 90
       50
176
     1
 62
   256
176
     0
 40
1.0
176
     0
 90
        2
176
     1
  1
strokes_ogs.tif
176
     1
290
     0
176
     1
 40
1.0
176
     1
 40
1.0
176
     1
  0
VISUALSTYLE
  5
2D
102
{ACAD_REACTORS
330
29
102
}
330
29
100
AcDbVisualStyle
  2
GouraudWithEdges
 70
     3
177
     3
291
     1
 70
    58
 90
        2
176
     1
 90
        2
176
     1
 90
        1
176
     1
 90
        2
176
     1
 40
0.6
176
     1
 40
30.0
176
     1
 62
     7
420
 16777215
176
     1
 90
        1
176
     1
 90
        0
176
     1
 62
     7
176
     1
 62
   257
176
     1
 90
        1
176
     1
 90
        1
176
     1
 40
1.0
176
     1
 90
        0
176
     1
 62
   257
176
     1
 40
1.0
176
     1
 90
        1
176
     1
 90
        6
176
     1
 90
        2
176
     1
 62
     7
176
     1
 90
        5
176
     1
 90
        0
176
     1
 90
        0
176
     1
290
     0
176
     1
 90
       13
176
     1
 40
0.0
176
     1
 90
        0
176
     1
290
     0
176
     1
290
     1
176
     1
290
     1
176
     1
290
     0
176
     1
290
     0
176
     1
290
     0
176
     1
290
     0
176
     1
290
     0
176
     1
290
     0
176
     1
 90
       50
176
     1
 40
0.0
176
     1
 40
1.0
176
     1
 90
        0
176
     1
 62
    18
420
        0
176
     1
 90
       50
176
     1
 90
        3
176
     1
 62
     5
420
      255
176
     1
290
     0
176
     1
 90
       50
176
     1
 90
       50
176
     1
 90
       50
176
     1
290
     0
176
     1
 90
       50
176
     1
 62
   256
176
     0
 40
1.0
176
     0
 90
        2
176
     1
  1
strokes_ogs.tif
176
     1
290
     0
176
     1
 40
1.0
176
     1
 40
1.0
176
     1
  0
VISUALSTYLE
  5
31
102
{ACAD_REACTORS
330
29
102
}
330
29
100
AcDbVisualStyle
  2
Hidden
 70
     6
177
     3
291
     0
 70
    58
 90
        1
176
     1
 90
        2
176
     1
 90
        2
176
     1
 90
        0
176
     1
 40
0.6
176
     1
 40
30.0
176
     1
 62
     7
420
 16777215
176
     1
 90
        2
176
     1
 90
        2
176
     1
 62
     7
176
     1
 62
   257
176
     1
 90
        2
176
     1
 90
        1
176
     1
 40
40.0
176
     1
 90
        0
176
     1
 62
   257
176
     1
 40
1.0
176
     1
 90
        1
176
     1
 90
        6
176
     1
 90
        2
176
     1
 62
     7
176
     1
 90
        3
176
     1
 90
        0
176
     1
 90
        0
176
     1
290
     0
176
     1
 90
        1
176
     1
 40
0.0
176
     1
 90
        0
176
     1
290
     0
176
     1
290
     1
176
     1
290
     1
176
     1
290
     0
176
     1
290
     0
176
     1
290
     0
176
     1
290
     0
176
     1
290
     0
176
     1
290
     0
176
     1
 90
       50
176
     1
 40
0.0
176
     1
 40
1.0
176
     1
 90
        0
176
     1
 62
    18
420
        0
176
     1
 90
       50
176
     1
 90
        3
176
     1
 62
     5
420
      255
176
     1
290
     0
176
     1
 90
       50
176
     1
 90
       50
176
     1
 90
       50
176
     1
290
     0
176
     1
 90
       50
176
     1
 62
   256
176
     0
 40
1.0
176
     0
 90
        2
176
     1
  1
strokes_ogs.tif
176
     1
290
     0
176
     1
 40
1.0
176
     1
 40
1.0
176
     1
  0
VISUALSTYLE
  5
3F
102
{ACAD_REACTORS
330
29
102
}
330
29
100
AcDbVisualStyle
  2
JitterOff
 70
    20
177
     3
291
     1
 70
    58
 90
        2
176
     0
 90
        2
176
     0
 90
        0
176
     0
 90
        0
176
     0
 40
0.6
176
     0
 40
30.0
176
     0
 62
     7
420
 16777215
176
     0
 90
        1
176
     0
 90
        4
176
     0
 62
     7
176
     0
 62
   257
176
     0
 90
        1
176
     0
 90
        1
176
     0
 40
1.0
176
     0
 90
       10
176
     2
 62
     7
176
     0
 40
1.0
176
     0
 90
        1
176
     0
 90
        6
176
     0
 90
        2
176
     0
 62
     7
176
     0
 90
        5
176
     0
 90
        0
176
     0
 90
        0
176
     0
290
     0
176
     0
 90
        1
176
     0
 40
0.0
176
     0
 90
        0
176
     0
290
     0
176
     0
290
     1
176
     0
290
     1
176
     0
290
     0
176
     0
290
     0
176
     0
290
     0
176
     0
290
     0
176
     0
290
     0
176
     0
290
     0
176
     0
 90
       50
176
     0
 40
0.0
176
     0
 40
1.0
176
     0
 90
        0
176
     0
 62
    18
420
        0
176
     0
 90
       50
176
     0
 90
        3
176
     0
 62
     5
420
      255
176
     0
290
     0
176
     0
 90
       50
176
     0
 90
       50
176
     0
 90
       50
176
     0
290
     0
176
     0
 90
       50
176
     0
 62
   256
176
     0
 40
1.0
176
     0
 90
        2
176
     0
  1
strokes_ogs.tif
176
     0
290
     0
176
     0
 40
1.0
176
     0
 40
1.0
176
     0
  0
VISUALSTYLE
  5
37
102
{ACAD_REACTORS
330
29
102
}
330
29
100
AcDbVisualStyle
  2
Linepattern
 70
    14
177
     3
291
     1
 70
    58
 90
        2
176
     1
 90
        2
176
     1
 90
        0
176
     1
 90
        0
176
     1
 40
0.6
176
     1
 40
30.0
176
     1
 62
     7
420
 16777215
176
     1
 90
        1
176
     1
 90
        4
176
     1
 62
     7
176
     1
 62
   257
176
     1
 90
        7
176
     1
 90
        7
176
     1
 40
1.0
176
     1
 90
        8
176
     1
 62
     7
176
     1
 40
1.0
176
     1
 90
        1
176
     1
 90
        6
176
     1
 90
        2
176
     1
 62
     7
176
     1
 90
        5
176
     1
 90
        0
176
     1
 90
        0
176
     1
290
     0
176
     1
 90
        1
176
     1
 40
0.0
176
     1
 90
        0
176
     1
290
     0
176
     1
290
     1
176
     1
290
     1
176
     1
290
     0
176
     1
290
     0
176
     1
290
     0
176
     1
290
     0
176
     1
290
     0
176
     1
290
     0
176
     1
 90
       50
176
     1
 40
0.0
176
     1
 40
1.0
176
     1
 90
        0
176
     1
 62
    18
420
        0
176
     1
 90
       50
176
     1
 90
        3
176
     1
 62
     5
420
      255
176
     1
290
     0
176
     1
 90
       50
176
     1
 90
       50
176
     1
 90
       50
176
     1
290
     0
176
     1
 90
       50
176
     1
 62
   256
176
     0
 40
1.0
176
     0
 90
        2
176
     1
  1
strokes_ogs.tif
176
     1
290
     0
176
     1
 40
1.0
176
     1
 40
1.0
176
     1
  0
VISUALSTYLE
  5
40
102
{ACAD_REACTORS
330
29
102
}
330
29
100
AcDbVisualStyle
  2
OverhangOff
 70
    21
177
     3
291
     1
 70
    58
 90
        2
176
     0
 90
        2
176
     0
 90
        0
176
     0
 90
        0
176
     0
 40
0.6
176
     0
 40
30.0
176
     0
 62
     7
420
 16777215
176
     0
 90
        1
176
     0
 90
        4
176
     0
 62
     7
176
     0
 62
   257
176
     0
 90
        1
176
     0
 90
        1
176
     0
 40
1.0
176
     0
 90
        9
176
     2
 62
     7
176
     0
 40
1.0
176
     0
 90
        1
176
     0
 90
        6
176
     0
 90
        2
176
     0
 62
     7
176
     0
 90
        5
176
     0
 90
        0
176
     0
 90
        0
176
     0
290
     0
176
     0
 90
        1
176
     0
 40
0.0
176
     0
 90
        0
176
     0
290
     0
176
     0
290
     1
176
     0
290
     1
176
     0
290
     0
176
     0
290
     0
176
     0
290
     0
176
     0
290
     0
176
     0
290
     0
176
     0
290
     0
176
     0
 90
       50
176
     0
 40
0.0
176
     0
 40
1.0
176
     0
 90
        0
176
     0
 62
    18
420
        0
176
     0
 90
       50
176
     0
 90
        3
176
     0
 62
     5
420
      255
176
     0
290
     0
176
     0
 90
       50
176
     0
 90
       50
176
     0
 90
       50
176
     0
290
     0
176
     0
 90
       50
176
     0
 62
   256
176
     0
 40
1.0
176
     0
 90
        2
176
     0
  1
strokes_ogs.tif
176
     0
290
     0
176
     0
 40
1.0
176
     0
 40
1.0
176
     0
  0
VISUALSTYLE
  5
33
102
{ACAD_REACTORS
330
29
102
}
330
29
100
AcDbVisualStyle
  2
Realistic
 70
     8
177
     3
291
     0
 70
    58
 90
        2
176
     1
 90
        3
176
     1
 90
        0
176
     1
 90
        2
176
     1
 40
0.6
176
     1
 40
30.0
176
     1
 62
     7
420
 16777215
176
     1
 90
        0
176
     1
 90
        0
176
     1
 62
     7
176
     1
 62
   257
176
     1
 90
        1
176
     1
 90
        1
176
     1
 40
1.0
176
     1
 90
        8
176
     1
 62
   257
176
     1
 40
1.0
176
     1
 90
        1
176
     1
 90
        6
176
     1
 90
        2
176
     1
 62
     7
176
     1
 90
        3
176
     1
 90
        0
176
     1
 90
        0
176
     1
290
     0
176
     1
 90
       13
176
     1
 40
0.0
176
     1
 90
        0
176
     1
290
     0
176
     1
290
     1
176
     1
290
     1
176
     1
290
     0
176
     1
290
     0
176
     1
290
     0
176
     1
290
     0
176
     1
290
     0
176
     1
290
     0
176
     1
 90
       50
176
     1
 40
0.0
176
     1
 40
1.0
176
     1
 90
        0
176
     1
 62
    18
420
        0
176
     1
 90
       50
176
     1
 90
        3
176
     1
 62
     5
420
      255
176
     1
290
     0
176
     1
 90
       50
176
     1
 90
       50
176
     1
 90
       50
176
     1
290
     0
176
     1
 90
       50
176
     1
 62
   256
176
     0
 40
1.0
176
     0
 90
        2
176
     1
  1
strokes_ogs.tif
176
     1
290
     0
176
     1
 40
1.0
176
     1
 40
1.0
176
     1
  0
VISUALSTYLE
  5
3E
102
{ACAD_REACTORS
330
29
102
}
330
29
100
AcDbVisualStyle
  2
Shaded
 70
    27
177
     3
291
     0
 70
    58
 90
        2
176
     1
 90
        2
176
     1
 90
        1
176
     1
 90
        2
176
     1
 40
0.6
176
     1
 40
30.0
176
     1
 62
     7
420
 16777215
176
     1
 90
        0
176
     1
 90
        4
176
     1
 62
     7
176
     1
 62
   257
176
     1
 90
        1
176
     1
 90
        1
176
     1
 40
1.0
176
     1
 90
        8
176
     1
 62
   257
176
     1
 40
1.0
176
     1
 90
        1
176
     1
 90
        6
176
     1
 90
        2
176
     1
 62
     8
420
  7895160
176
     1
 90
        3
176
     1
 90
        0
176
     1
 90
        0
176
     1
290
     0
176
     1
 90
        5
176
     1
 40
0.0
176
     1
 90
        0
176
     1
290
     0
176
     1
290
     1
176
     1
290
     1
176
     1
290
     0
176
     1
290
     0
176
     1
290
     0
176
     1
290
     0
176
     1
290
     0
176
     1
290
     0
176
     1
 90
       50
176
     1
 40
0.0
176
     1
 40
1.0
176
     1
 90
        0
176
     1
 62
    18
420
        0
176
     1
 90
       50
176
     1
 90
        3
176
     1
 62
     5
420
      255
176
     1
290
     0
176
     1
 90
       50
176
     1
 90
       50
176
     1
 90
       50
176
     1
290
     0
176
     1
 90
       50
176
     1
 62
   256
176
     0
 40
1.0
176
     0
 90
        2
176
     1
  1
strokes_ogs.tif
176
     1
290
     0
176
     1
 40
1.0
176
     1
 40
1.0
176
     1
  0
VISUALSTYLE
  5
3D
102
{ACAD_REACTORS
330
29
102
}
330
29
100
AcDbVisualStyle
  2
Shaded with edges
 70
    26
177
     3
291
     0
 70
    58
 90
        2
176
     1
 90
        2
176
     1
 90
        1
176
     1
 90
        2
176
     1
 40
0.6
176
     1
 40
30.0
176
     1
 62
     7
420
 16777215
176
     1
 90
        1
176
     1
 90
       10
176
     1
 62
     7
176
     1
 62
   257
176
     1
 90
        2
176
     1
 90
        1
176
     1
 40
1.0
176
     1
 90
        8
176
     1
 62
   257
176
     1
 40
1.0
176
     1
 90
        1
176
     1
 90
        6
176
     1
 90
        2
176
     1
 62
     7
176
     1
 90
        3
176
     1
 90
        0
176
     1
 90
        0
176
     1
290
     0
176
     1
 90
        5
176
     1
 40
0.0
176
     1
 90
        0
176
     1
290
     0
176
     1
290
     1
176
     1
290
     1
176
     1
290
     0
176
     1
290
     0
176
     1
290
     0
176
     1
290
     0
176
     1
290
     0
176
     1
290
     0
176
     1
 90
       50
176
     1
 40
0.0
176
     1
 40
1.0
176
     1
 90
        0
176
     1
 62
    18
420
        0
176
     1
 90
       50
176
     1
 90
        3
176
     1
 62
     5
420
      255
176
     1
290
     0
176
     1
 90
       50
176
     1
 90
       50
176
     1
 90
       50
176
     1
290
     0
176
     1
 90
       50
176
     1
 62
   256
176
     0
 40
1.0
176
     0
 90
        2
176
     1
  1
strokes_ogs.tif
176
     1
290
     0
176
     1
 40
1.0
176
     1
 40
1.0
176
     1
  0
VISUALSTYLE
  5
3A
102
{ACAD_REACTORS
330
29
102
}
330
29
100
AcDbVisualStyle
  2
Shades of Gray
 70
    23
177
     3
291
     0
 70
    58
 90
        2
176
     1
 90
        2
176
     1
 90
        3
176
     1
 90
        0
176
     1
 40
0.6
176
     1
 40
30.0
176
     1
 62
     7
420
 16777215
176
     1
 90
        2
176
     1
 90
        2
176
     1
 62
     7
176
     1
 62
     7
176
     1
 90
        1
176
     1
 90
        1
176
     1
 40
40.0
176
     1
 90
        8
176
     1
 62
     7
176
     1
 40
1.0
176
     1
 90
        1
176
     1
 90
        6
176
     1
 90
        2
176
     1
 62
     7
176
     1
 90
        3
176
     1
 90
        0
176
     1
 90
        0
176
     1
290
     0
176
     1
 90
        1
176
     1
 40
0.0
176
     1
 90
        0
176
     1
290
     0
176
     1
290
     1
176
     1
290
     1
176
     1
290
     0
176
     1
290
     0
176
     1
290
     0
176
     1
290
     0
176
     1
290
     0
176
     1
290
     0
176
     1
 90
       50
176
     1
 40
0.0
176
     1
 40
1.0
176
     1
 90
        0
176
     1
 62
    18
420
        0
176
     1
 90
       50
176
     1
 90
        3
176
     1
 62
     5
420
      255
176
     1
290
     0
176
     1
 90
       50
176
     1
 90
       50
176
     1
 90
       50
176
     1
290
     0
176
     1
 90
       50
176
     1
 62
   256
176
     0
 40
1.0
176
     0
 90
        2
176
     1
  1
strokes_ogs.tif
176
     1
290
     0
176
     1
 40
1.0
176
     1
 40
1.0
176
     1
  0
VISUALSTYLE
  5
3B
102
{ACAD_REACTORS
330
29
102
}
330
29
100
AcDbVisualStyle
  2
Sketchy
 70
    24
177
     3
291
     0
 70
    58
 90
        1
176
     1
 90
        2
176
     1
 90
        2
176
     1
 90
        0
176
     1
 40
0.6
176
     1
 40
30.0
176
     1
 62
     7
420
 16777215
176
     1
 90
        2
176
     1
 90
        2
176
     1
 62
     7
176
     1
 62
     7
176
     1
 90
        1
176
     1
 90
        1
176
     1
 40
40.0
176
     1
 90
       11
176
     1
 62
     7
176
     1
 40
1.0
176
     1
 90
        1
176
     1
 90
        6
176
     1
 90
        2
176
     1
 62
     7
176
     1
 90
        6
176
     1
 90
        0
176
     1
 90
        0
176
     1
290
     0
176
     1
 90
        1
176
     1
 40
0.0
176
     1
 90
        0
176
     1
290
     0
176
     1
290
     1
176
     1
290
     1
176
     1
290
     0
176
     1
290
     0
176
     1
290
     0
176
     1
290
     0
176
     1
290
     0
176
     1
290
     0
176
     1
 90
       50
176
     1
 40
0.0
176
     1
 40
1.0
176
     1
 90
        0
176
     1
 62
    18
420
        0
176
     1
 90
       50
176
     1
 90
        3
176
     1
 62
     5
420
      255
176
     1
290
     0
176
     1
 90
       50
176
     1
 90
       50
176
     1
 90
       50
176
     1
290
     0
176
     1
 90
       50
176
     1
 62
   256
176
     0
 40
1.0
176
     0
 90
        2
176
     1
  1
strokes_ogs.tif
176
     1
290
     0
176
     1
 40
1.0
176
     1
 40
1.0
176
     1
  0
VISUALSTYLE
  5
36
102
{ACAD_REACTORS
330
29
102
}
330
29
100
AcDbVisualStyle
  2
Thicken
 70
    13
177
     3
291
     1
 70
    58
 90
        2
176
     1
 90
        2
176
     1
 90
        0
176
     1
 90
        0
176
     1
 40
0.6
176
     1
 40
30.0
176
     1
 62
     7
420
 16777215
176
     1
 90
        1
176
     1
 90
        4
176
     1
 62
     7
176
     1
 62
   257
176
     1
 90
        1
176
     1
 90
        1
176
     1
 40
1.0
176
     1
 90
       12
176
     1
 62
     7
176
     1
 40
1.0
176
     1
 90
        1
176
     1
 90
        6
176
     1
 90
        2
176
     1
 62
     7
176
     1
 90
        5
176
     1
 90
        0
176
     1
 90
        0
176
     1
290
     0
176
     1
 90
        1
176
     1
 40
0.0
176
     1
 90
        0
176
     1
290
     0
176
     1
290
     1
176
     1
290
     1
176
     1
290
     0
176
     1
290
     0
176
     1
290
     0
176
     1
290
     0
176
     1
290
     0
176
     1
290
     0
176
     1
 90
       50
176
     1
 40
0.0
176
     1
 40
1.0
176
     1
 90
        0
176
     1
 62
    18
420
        0
176
     1
 90
       50
176
     1
 90
        3
176
     1
 62
     5
420
      255
176
     1
290
     0
176
     1
 90
       50
176
     1
 90
       50
176
     1
 90
       50
176
     1
290
     0
176
     1
 90
       50
176
     1
 62
   256
176
     0
 40
1.0
176
     0
 90
        2
176
     1
  1
strokes_ogs.tif
176
     1
290
     0
176
     1
 40
1.0
176
     1
 40
1.0
176
     1
  0
VISUALSTYLE
  5
30
102
{ACAD_REACTORS
330
29
102
}
330
29
100
AcDbVisualStyle
  2
Wireframe
 70
     5
177
     3
291
     0
 70
    58
 90
        0
176
     1
 90
        2
176
     1
 90
        0
176
     1
 90
        0
176
     1
 40
0.6
176
     1
 40
30.0
176
     1
 62
     7
420
 16777215
176
     1
 90
        1
176
     1
 90
        4
176
     1
 62
     7
176
     1
 62
   257
176
     1
 90
        1
176
     1
 90
        1
176
     1
 40
1.0
176
     1
 90
        0
176
     1
 62
   257
176
     1
 40
1.0
176
     1
 90
        1
176
     1
 90
        6
176
     1
 90
        2
176
     1
 62
     7
176
     1
 90
        3
176
     1
 90
        0
176
     1
 90
        0
176
     1
290
     0
176
     1
 90
        1
176
     1
 40
0.0
176
     1
 90
        0
176
     1
290
     0
176
     1
290
     1
176
     1
290
     1
176
     1
290
     0
176
     1
290
     0
176
     1
290
     0
176
     1
290
     0
176
     1
290
     0
176
     1
290
     0
176
     1
 90
       50
176
     1
 40
0.0
176
     1
 40
1.0
176
     1
 90
        0
176
     1
 62
    18
420
        0
176
     1
 90
       50
176
     1
 90
        3
176
     1
 62
     5
420
      255
176
     1
290
     0
176
     1
 90
       50
176
     1
 90
       50
176
     1
 90
       50
176
     1
290
     0
176
     1
 90
       50
176
     1
 62
   256
176
     0
 40
1.0
176
     0
 90
        2
176
     1
  1
strokes_ogs.tif
176
     1
290
     0
176
     1
 40
1.0
176
     1
 40
1.0
176
     1
  0
VISUALSTYLE
  5
3C
102
{ACAD_REACTORS
330
29
102
}
330
29
100
AcDbVisualStyle
  2
X-Ray
 70
    25
177
     3
291
     0
 70
    58
 90
        2
176
     1
 90
        2
176
     1
 90
        1
176
     1
 90
        1
176
     1
 40
0.5
176
     1
 40
30.0
176
     1
 62
     7
420
 16777215
176
     1
 90
        1
176
     1
 90
        0
176
     1
 62
     7
176
     1
 62
   257
176
     1
 90
        1
176
     1
 90
        1
176
     1
 40
1.0
176
     1
 90
        8
176
     1
 62
     7
176
     1
 40
1.0
176
     1
 90
        1
176
     1
 90
        6
176
     1
 90
        2
176
     1
 62
     7
176
     1
 90
        3
176
     1
 90
        0
176
     1
 90
        0
176
     1
290
     0
176
     1
 90
       13
176
     1
 40
0.0
176
     1
 90
        0
176
     1
290
     0
176
     1
290
     1
176
     1
290
     1
176
     1
290
     0
176
     1
290
     0
176
     1
290
     0
176
     1
290
     0
176
     1
290
     0
176
     1
290
     0
176
     1
 90
       50
176
     1
 40
0.0
176
     1
 40
1.0
176
     1
 90
        0
176
     1
 62
    18
420
        0
176
     1
 90
       50
176
     1
 90
        3
176
     1
 62
     5
420
      255
176
     1
290
     0
176
     1
 90
       50
176
     1
 90
       50
176
     1
 90
       50
176
     1
290
     0
176
     1
 90
       50
176
     1
 62
   256
176
     0
 40
1.0
176
     0
 90
        2
176
     1
  1
strokes_ogs.tif
176
     1
290
     0
176
     1
 40
1.0
176
     1
 40
1.0
176
     1
  0
DICTIONARYVAR
  5
4B4
102
{ACAD_REACTORS
330
4AF
102
}
330
4AF
100
DictionaryVariables
280
     0
  1
1:1
  0
DICTIONARYVAR
  5
4B1
102
{ACAD_REACTORS
330
4AF
102
}
330
4AF
100
DictionaryVariables
280
     0
  1
STANDARD
  0
DICTIONARYVAR
  5
4B0
102
{ACAD_REACTORS
330
4AF
102
}
330
4AF
100
DictionaryVariables
280
     0
  1
STANDARD
  0
DICTIONARYVAR
  5
4B2
102
{ACAD_REACTORS
330
4AF
102
}
330
4AF
100
DictionaryVariables
280
     0
  1
Imperial24
  0
DICTIONARYVAR
  5
4B3
102
{ACAD_REACTORS
330
4AF
102
}
330
4AF
100
DictionaryVariables
280
     0
  1
Imperial24
  0
XRECORD
  5
4A9
102
{ACAD_REACTORS
330
4A7
102
}
330
4A7
100
AcDbXrecord
280
     1
  1
BUILDING_ID
  1
Shower_Arm-American_Standard-Modern-1660
  1
FLOOR_ID
  1
2726
  0
XRECORD
  5
4A8
102
{ACAD_REACTORS
330
4A7
102
}
330
4A7
100
AcDbXrecord
280
     1
  1
-2001160
  1
Plumbing Fixtures
  0
DICTIONARY
  5
4AC
330
6B
100
AcDbDictionary
280
     1
281
     1
  3
ACAD_XREC_ROUNDTRIP
360
1541
  0
DICTIONARY
  5
1A
330
19
100
AcDbDictionary
280
     1
281
     1
  3
BUMPTILE
360
1C
  3
DIFFUSETILE
360
1B
  3
OPACITYTILE
360
1F
  3
REFLECTIONTILE
360
1E
  3
REFRACTIONTILE
360
20
  3
SPECULARTILE
360
1D
  0
DICTIONARY
  5
12
330
11
100
AcDbDictionary
280
     1
281
     1
  3
BUMPTILE
360
14
  3
DIFFUSETILE
360
13
  3
OPACITYTILE
360
17
  3
REFLECTIONTILE
360
16
  3
REFRACTIONTILE
360
18
  3
SPECULARTILE
360
15
  0
DICTIONARY
  5
22
330
21
100
AcDbDictionary
280
     1
281
     1
  3
BUMPTILE
360
24
  3
DIFFUSETILE
360
23
  3
FBXASSET
360
4BC
  3
OPACITYTILE
360
27
  3
REFLECTIONTILE
360
26
  3
REFRACTIONTILE
360
28
  3
SPECULARTILE
360
25
  0
DICTIONARY
  5
4AA
330
69
100
AcDbDictionary
280
     1
281
     1
  3
ACAD_XREC_ROUNDTRIP
360
1540
  0
DICTIONARY
  5
153E
330
65
100
AcDbDictionary
280
     1
281
     1
  3
ACAD_ROUNDTRIP_2008_TABLESTYLE_CELLSTYLEMAP
360
153F
  0
XRECORD
  5
1541
102
{ACAD_REACTORS
330
4AC
102
}
330
4AC
100
AcDbXrecord
280
     1
102
DISPLAYNAME
  1
Imperial24
102
FLAGS
 90
        0
  0
XRECORD
  5
1C
102
{ACAD_REACTORS
330
1A
102
}
330
1A
100
AcDbXrecord
280
     1
270
     1
271
     1
  0
XRECORD
  5
1B
102
{ACAD_REACTORS
330
1A
102
}
330
1A
100
AcDbXrecord
280
     1
270
     1
271
     1
  0
XRECORD
  5
1F
102
{ACAD_REACTORS
330
1A
102
}
330
1A
100
AcDbXrecord
280
     1
270
     1
271
     1
  0
XRECORD
  5
1E
102
{ACAD_REACTORS
330
1A
102
}
330
1A
100
AcDbXrecord
280
     1
270
     1
271
     1
  0
XRECORD
  5
20
102
{ACAD_REACTORS
330
1A
102
}
330
1A
100
AcDbXrecord
280
     1
270
     1
271
     1
  0
XRECORD
  5
1D
102
{ACAD_REACTORS
330
1A
102
}
330
1A
100
AcDbXrecord
280
     1
270
     1
271
     1
  0
XRECORD
  5
14
102
{ACAD_REACTORS
330
12
102
}
330
12
100
AcDbXrecord
280
     1
270
     1
271
     1
  0
XRECORD
  5
13
102
{ACAD_REACTORS
330
12
102
}
330
12
100
AcDbXrecord
280
     1
270
     1
271
     1
  0
XRECORD
  5
17
102
{ACAD_REACTORS
330
12
102
}
330
12
100
AcDbXrecord
280
     1
270
     1
271
     1
  0
XRECORD
  5
16
102
{ACAD_REACTORS
330
12
102
}
330
12
100
AcDbXrecord
280
     1
270
     1
271
     1
  0
XRECORD
  5
18
102
{ACAD_REACTORS
330
12
102
}
330
12
100
AcDbXrecord
280
     1
270
     1
271
     1
  0
XRECORD
  5
15
102
{ACAD_REACTORS
330
12
102
}
330
12
100
AcDbXrecord
280
     1
270
     1
271
     1
  0
XRECORD
  5
24
102
{ACAD_REACTORS
330
22
102
}
330
22
100
AcDbXrecord
280
     1
270
     1
271
     1
  0
XRECORD
  5
23
102
{ACAD_REACTORS
330
22
102
}
330
22
100
AcDbXrecord
280
     1
270
     1
271
     1
  0
XRECORD
  5
4BC
102
{ACAD_REACTORS
330
22
102
}
330
22
100
AcDbXrecord
280
     1
 70
     1
 90
1959938040
 71
     1
  1
EC541F14-4EFE-4A5D-902F-5B0701B9B2B3
311
504B03041400060808008B76564CFE2BF48BD8000000200100004F00000036454232383634362D314446422D343830382D393643422D4346323039393632454544452F4173736574446174612F446566696E6974696F6E4974657261746F7250726F706572746965732E62696E454E3D4FC3400C3D18401D18F80755F7E32E
311
E6AAD2A82D4ABF98608189A5722F6E897449AA5C2275ECC8BF065B14D5D2B39FBF9EFDAD94FA391B5375C538B1BFE3F8421535857FF75F54A2BA914AA8B7186E2FBD6BA6922E69875D6865EBB5889E42C08AEA2EDE5F46FB25B62C87E141967A8CFF421485FDDF31B9FFC6909724627E489F31466AA766B73D1AB71E25D930
311
59EACCAD9C76305F317399B6A30CD67661C7E3C7856928D65DE3291A30767356DE1CAA7D91CF266D5152BFC292A603DF10FF940F666093276D41037C242E1D420AF0393132F90B504B03041400060808008B76564C0A0539700D010000300200004500000036454232383634362D314446422D343830382D393643422D4346
311
323039393632454544452F4173736574446174612F496E7374616E636550726F706572746965732E62696EEB606060F80F0540260323103700495E20ED9E9A975A94991C9C9C919A9BA802147075363531743334D135717573D535713475D1B5343072D335753230373074B274327232664768046931363471713532B5D435
311
353131D635313332D475727372D13534373670367376B67474B504D9C9A019D37FE8ABC6157B28CD04146A006218DF1EC806820FF660170259020E0C02201108507180B170D0408D100067E05008B20249253390DD00E13F804AF040B86824280C11327043D0543130A4EC74C0104311C0AE15643C283C41E0833D0B900485
311
1A1F10079727962467E83A1525E6A5A4A680DC0B06425D2E20BAE361563844A013CC87B0191832F6459CF8078CAB19503A613F840F93C7450300504B03041400060808008B76564C7D09B9F3790100005E0600003D00000036454232383634362D314446422D343830382D393643422D4346323039393632454544452F5363
311
68656D61732F436F6D6D6F6E536368656D612E786D6CC595D16A83301486EFFB14E20B94B15B2DB42B6C42D9458BBB3F9AD32E2C2692448B6FBF18ADCBA22D0E847927497EBFF39FFFC468AB14EA53FE89056C56817DA234D90735B0387C11452178B71A6E56D1DAACFCEC3A1E024AE2704B6AE03912B38667CAA9A6828741
311
59658CE6717806A6300C2402119C3571A86565DEAD7C27793C0C92272D29BF74AA2DD78166C9FEB6396090A181B2C4DD4A8BD49D9992D881C29EDDC7210369A2518216720F1AC6709EF84E0886C02DE01B2504C785CE50EE2C69D97BBD013EE11A2F28AD7E47FE8152CDF6F3D91ADA8B0CA269DFA765FB9326EF5098467A7D
311
7E5C3E13791B2B3F029ECB694589B5A02FFED590FFF1434EBC8CD86085932F68F3A59B725CC2FDA87A9C8E5A0EA6714236234C604C5C8B8A695A32345415AA5BFD4B58E5201054B9A4E5E4F42DFCA92F6CAE42927F2CD606894F05D0EFDEBCC8393EDA03B382314FDA9D6989359D1C679BD7A787E3AB3FAB22E340D972B63B
311
53E25CC22E707DE7FAB9C71BAD7FFD4FBE01504B03041400060808008B76564C317D3058AB040000AB1500003E00000036454232383634362D314446422D343830382D393643422D4346323039393632454544452F536368656D61732F47656E65726963536368656D612E786D6CDD586D4FE33810FECEAFB0F27D4BE18ED5
311
AD4491DA4570FD807A82E5B3E53A6EEB3B3B891CA7D0FBF537633B6ED27437A170D26A2B21F232F1BC3DCFCCD8D7D3B214F6896F84663767C4FDAE9FE7B764CBD424B917993092FBD7C9CDD9F539BC8A6233560A2FF728B254980766419AA986388A4479BB2B82BC0E92AC2804332CE3C22D8E0251BA9244A693649A6EF17D
311
0A8AC54A66D2CA3C4B48512D95E49364C554291262044BF34CED26893515DC3BE3C19CF23C7850FFDFAF367AD5CA29AD64542975A184169965A8C5A99FB71E3DE03BF5C8762758E0BF9D6BB61651775BE1703B16F74F2758005FBD5BF35F466CA57839417BF8F26BAE72D36746C8FDC7E4FC791ED535723DCB7325984F3247
311
9BE87247F3E5DF82DB809F802DC59602A8E0EC26B31D59781924435823E6ADB9E6DA5387B29CA6C232A9CAB0AC476858F51918E457BE33B9260BBB1186D43C2A1D3E0F95DCA99C5987CDA60A595A47230FFDDF1312143CB057725BBF449BDDE77D1623C51C87DA3198EAA504069005E7AA2A9188C7A230CFAC58831BC8DE86
311
8925432AD551B8F81C4D7C0A2F6ECE42FD21E47A9657595A9242188E945B8B48759971E3385ACA7FE1E945423454055DE9497219AF65096268E216447CC0357B0D5257A03ADC75E5BC43A83CC6E83C38141F1C4BF392F17F568C0BCA2BA58E066F1624C857943816B86E6697952E28D3100C0025532A7FE17996014445CAB0
311
6E9793043C5DABBAE48D47975F0E7E31CC53BFCCBBA3FCE9623C1E0F8A7410F4811F16EA363A3D339A387201D1AC18108DC7490266028AEFEB8B597D3175B8090C99418C5D3A9CB698E46E327865F3CAD2BC605C5AE80003F201E8ACCB87FBD833BACFC954AE5615B6B55E0DE8E3E8B78BABE867BC415FE34DCB5FE7E62087
311
831D5462CFA22B96D630DBBBE5DA19B9C3573DC0F22CFC017B0762EA8DDC6DC7BA9BD4B5CA4BA09028A130F5861B630AB10E29BDDF7F3AACB0CA926A6805C7CBC39F72BD51F0678F57FD6345D5889582E652D84D283810C260DB23BC823281530C76806F064A13B975A23D790A15FFDD89BAC47CBE85FA8755F67B1E7BB7A8
311
4BDC8E1E74156801DD08B844EDC887F5998148BDFCE39D11E8A215338EFE6FA1005166E93815EB61B8EDC405977055A08F21873ABF7CBCD2EFA4DAB4C0FD695F75165B618C4C05019803B21DCC3F08DCA8250C14DD8E55031A468DFF09DDC19B21E8AE1DFFA5D05DFB2F613FF91AAADAC5E8AA45EB20D3D7700614B2D17858
311
B6A1E6BFA9940DA054EDA885DD6FA92A9872F98EBE086C006F2434D4F6B8425F4C7E8A267C6C7C3638EFF3DCC07143495D1FA6387D0803D33FAD4F0BEABD437B53325370F8405EA4DD9CB87D6AE9362C95D5C059605F53D17AD8C739F30715D552A815954A559A72B7F9B442C36687D9CAD443D6E72B1CB3EBF11185C8B786
311
5077E4E84ECB0D2D2BA9E0700642590C80178C95400C3F3AFB0B1827FD456B94BC738BFA0DAC73BB6F846E1804AECBACB165DDFBFA04B121738C0D08B8E39EAEAFDDD6E8885430000C1F369BEF153A06D59FF68C473F05837EECFD2F34AF3F5903DB5B7792A072CE54C634D0A3E7F0CF49D6DB7E00713CC67410F54BC66DDE
311
A1063C823C41C3B47D9079A0A439DFE83C6EA31AA734F81051DE1A82AFCF5B87B3FF01504B03041400060808008B76564C79B77F2750010000C20300004500000036454232383634362D314446422D343830382D393643422D4346323039393632454544452F536368656D61732F52656E6465724D6174657269616C536368
311
656D612E786D6CAD93516BC23010C7DFFD14211F602A636FADA00E445036DAB95739D39B0DA489A451F1DBAFB9A4B5E2C660D8B7CBFDEF77C9DDBFC9B4AED1E5A2C40A2603465FB259BEB213A89467A80BB46B706825A8A0E29341326C149D7A063506F9DC5495D13D994F75BA4DB662B248F9B23A28AC503B70D2E805EA06
311
2E383B1C774A8A947F81AA91338B5018AD2E2977F6D8C4749FD03B5BFDC15C7BB8CAE0F250EADB227F28EFDDE249E2F99FCC7969A4401AA8A0B16FF3122C165B5A689C57CCD494E14CC10E9BAD7AA1D4FB669871E18C2501F709EA78C36C2B69FAA31B0216B48D5E61BB95DF71B2B1D3C17B4ABB78C371C75CF672DE623F80
311
DBC3B6513237CAD8FE0C3EA4765BE14F899FA57CF4F43C7EA160D10F66FD609AF2EB3D3C821138BCCFC3BA8633631482BE6BE9CC7EAF5A974607C7697B1E91626DC7CA9DDF02A1EA333851DE39E1EAF9A00DA5C9F0E69FFD06504B03041400060808008B76564CA8B7D9D25100000057000000470000003645423238363436
311
2D314446422D343830382D393643422D4346323039393632454544452F4173736574446174612F41737365745461626C654F66436F6E74656E74732E62696E536160607075363531743334D135717573D535713475D1B5343072D335753230373074B2743272321602AACB4D2C492DCA4CCC492C28484D2C4ACC4B4E050A82
311
012F90744FCD03CA26072767A4E6260200504B03041400060808008B76564CF865834058000000680000004500000036454232383634362D314446422D343830382D393643422D4346323039393632454544452F4173736574446174612F53747265616D56657273696F6E5461626C652E696E66558CBD0A80300C06F73E4B
311
117FB66E451741D041DC5BF98480A492E4FDD18EAEC7DD4555D89EF28DF51A0B1BD8340C4DE7DD848B988C0ACF0649566493F2408C508DDEBB99D5129FF8F1AF8CF5B9503E20FAE5A16B5AF702504B03041400060808008B76564CC2274247340100009A0400003600000036454232383634362D314446422D343830382D39
311
3643422D4346323039393632454544452F4173736574446174612F636E782E786D6CCD94314FC3301085FF4AE43D76628154558E2B044B2790A818D8AECEA55875ECC8BE20F8F7D86D061088A943D7F3BBF3F327BF539B8FD155EF18930DBE632D6F5885DE84DEFA43C7661AEA15AB365AC510E89B8C551E46EC582933AD0E
311
31CCD352EA7180D995AAB3FEB814EF5242DAC1DEE1E3701F3CA1A7C42AE320A58E25F38623709829F4988EBC0702DEF28829CCD1609E4476C465928908843DD3B2695775236B2977EDCDFA56AEA57C55A228B5DA87E016BDCD97C53055E67C2BD38D12E558AB39DA4553DEC2F45F1EF9DE7A25B252AB443133593AE873CA1D
311
304DCE1AA08C4E0443487516218C4A9CC55A89C2E00789071CACB7A5659B8D0185F894ED61248B5747E43FAF9727B3F589C01BBC5E1EBF1D5E9EC2F3E907BD9C03794ACCB5E5E4B7436EFD70819488D31AC9A1295B457F01504B03041400060808008B76564C0BD667B1070100004F0300003400000036454232383634362D
311
314446422D343830382D393643422D4346323039393632454544452F536368656D61732F636E782E786D6CCD933F4F432114C5BFCA0B7BE13DA249D3F0E8D0C1C9459DDC106E2B29705FF863F4DB0B4F863671D3A11B1C7E21E71C2E62FFE9DDF00131590C3399E84806081A8D0DA799947CDC6CC9B0972222E60B8C0C4179
311
9849938914A78865E99281A32AAEA9CE8673170FE83D8667FD0E5E91413B95D24CD2BAA5AA643490CED4A8ACE84423242C5143BD215B0FFD061D41653044F271DA6E46BEE1FC65BADBDDF31DE7AF8235528A3744D7791B32445C068D7511AA9D51B0762C4589B6332D039197DE686D43B04A489172AC1D74327F2D9554CBE2
311
AC56B956C556F0879182B5A857811F2040B4FA36135F99FBB7C84F100CC4C7FA4AD12A779BC97FF3F8B702D83AFB7504DA5790DF504B03041400060808008B76564C410A3D5871000000A40000002C00000036454232383634362D314446422D343830382D393643422D4346323039393632454544452F636E782E786D6C55
311
CC4D0E82301086E1AB34B31774E7A22D31F1069E60020334B633A63FC6E34B0909B07DDE2F9FEE7EC1AB2FC5E4840DDC9A2B28E25E06C7938192C7CB1D54677514C9871928C640062A83D55394F2D968A0118BAFEA1DBF377CA444F98919176EAB9FEAAB9F2960DA5BBB1E2ED3FA6FFF504B03041400060808008B76564C62
311
7116957D000000A300000007000000636E782E786D6C4D8CD10A832018465F45FE7B379310052DB0EC3D6259C84CC3E5D8E34F4717BBFAE0F09D23FBCFEED1DBA6978B41417323806C78C4C5854D413E57CC01F59D4C319E7F374061DEAD828AA1935B8AF9B8D062D739FB4ABD0BCF0B32A329672DC3CD3869DC72C2B16083
311
C6C34489108C1A339A62DCAB52E6D72B5BF3DD17504B03041400060808008B76564C16E99B5DA600000035010000130000005B436F6E74656E745F54797065735D2E786D6C9590410E82301045AFD2740F4517C6180A0BF5065E60AC53688469D30E066F6F91AD9AB89CF9FFFD3F99BA9DC7413C3026E749CB4D59498164FC
311
CD51A7E5C4B6D84BD136F5E5193089ECA5A465CF1C0E4A25D3E308A9F401292BD6C711388FB15301CC1D3A54DBAADA29E38991B8E0254336F5092D4C038BF39CD76B6FC6A538AEBEA54A4B08617006389FA516557DE4AE8E7E70DE30729138228C5F021CD93F02D4FB0DCD0B504B03041400060808008B76564C3DEE336E64
311
000000790000001B0000006175746F6465736B2D64657369676E2D7061636B6167652E786D6C35CBC10E83200C00D05F21DCA56CA76D41FC96062B120735B69A7DBE268BB7777961F8D5AF396893C2ADB70FE7ADA196782C2DF776D7A97B5933C430F15651E5469C55D70F80A4992A3ADC954792C525AE70A1E4D6AD9816CC
311
044FEFDF01FE3FDE907802504B03041400060808008B76564CFF5AFCF3F9000000960100003700000036454232383634362D314446422D343830382D393643422D4346323039393632454544452F4173736574446174612F636F72652E786D6C8550CB6E833010FC15B4770376486422E32829E40B7AEACD320EB1126CE447
311
D5CFAF1DA8D49E7ADAD5ECCCECEEB0D3D7FC2C3E95F3DA9A0E705943A18CB4A336530731DC1085E2C499B336FCA24161C4AC3AC8307036391B970D92D60465326AECA8365078AF0214F2999A0EBCBCAB59942286C4F08F7211F2212655E272E57116A31E37A91E939BBE69E580B7F46D7768E815914B3FA0A63D34E84CF704
311
51721DDA7AC04D7FE95995C59C053DFF6C974E89A046E0A4C614D50411F28E9BE39E1C09F960556672E6834B3F6F4BF377C0CFF9EA5E04C1AA75FAC7352EE3FFAE519BB0239BEBAAF0C0713AF235E0ACCA29A5F28A30D59C28FF06504B03041400060808008B76564CBF99841BF80000009401000035000000364542323836
311
34362D314446422D343830382D393643422D4346323039393632454544452F536368656D61732F636F72652E786D6C8550CB6E833010FC15B477037648E444C65153C80FB4A7DE2CE3102BC1467E54FDFCDA40A5F6D4D3AE66676677879DBFA667F1A99CD7D6B480CB1A0A65A41DB4195B88E186281467CE9CB5E1170D0A23
311
26D5428681B3D1D9386F90B4262893516307B581C27B15A090CFD4B4E0E55D4DA2143124867F94B3900F31AA12972B8FB318F5B049F590DCF44D2B07FC485F7787865E11B9743D6A8E8706BDD03D41945CFB63DDE3A6BB74ACCA62CE829E7EB64BA74450037052638A6A820879C7CD694F4E847CB02A3339F3C1A59FB7A5F9
311
3BE06FCB9D9E55EBEC8F679C87FF3DA336614736CF55E181E374E232E0ACCA19A5B204986ACE937F03504B03041400060808008B76564C3302785902010000D70100002D00000036454232383634362D314446422D343830382D393643422D4346323039393632454544452F636F72652E786D6C9591CB6EC32010457F05CD
311
1E3FA8633911269213E70BBAEA8E9A89831283C5A3EAE717D7AEDAEEDA15E872EE0C77861FDFA7077943E7B5352D94590104CD609536630B315C6903E428B8B336FCC0801839610B8B0C828FCEC67993066B029A453556E1264AEF3100191EE9D2821F6E38C94CC690087FCF6639DCE5885999AD9CE0414F5FD6C1A10CA840
311
B0A26C68C12863CF6575D8B103632F3C5F48C1A336E1896DCD707A4545EC1C5224103B9EAFAF898A5A6D8C56E98FFAAAD181A8FB8E357555D3F27CE968D5140DDDD7A78E9E2EACD8EF6BD6F7E73E154966C17D7069325B9165067FB5AFC65FC9E2ACFE996C757810E577A87C19B3E0F9E70ED2B9AC447C00504B0304140006
311
0808008B76564CD6F2C96008010000B201000008000000636F72652E786D6C8D50CB6EC32010FC15B477FC204E644798A8A99D2FE8A9376A8883628365206AFFBE1053A9BDF5B468667667187AFA9C27F490AB5546B750660520A90723941E5BF0EE8A6B4027465763DC2F1920CD67D9428481D171357E49D060B4933AA2DA
311
0899406EAD748086293C5AB0C34DCE3CE3DE0585BD670B1FEE7C9459996D3A469D9A7F568755722705305294352E0826E4ADAC8E7B7224E49DE651C9A8F74A242B2582BBBA2AB9026BEAD7DDA1AA2F989CBB1E57CDA1C22FF59EE09A5CFAA6E8CBAA3B77348FCB8C5AB7863FA72321A743963FA22FCD378AD10F63A62408A1
311
04327AFA0256D03C127F42FB45FC23B4D26E47D2C16DC3022B43A027118C6383613CEB0D33B6CDBE01504B010214001400060808008B76564CFE2BF48BD8000000200100004F000000000000000000000000000000000036454232383634362D314446422D343830382D393643422D4346323039393632454544452F417373
311
6574446174612F446566696E6974696F6E4974657261746F7250726F706572746965732E62696E504B010214001400060808008B76564C0A0539700D0100003002000045000000000000000000000000004501000036454232383634362D314446422D343830382D393643422D4346323039393632454544452F4173736574
311
446174612F496E7374616E636550726F706572746965732E62696E504B010214001400060808008B76564C7D09B9F3790100005E0600003D00000000000000000000000000B502000036454232383634362D314446422D343830382D393643422D4346323039393632454544452F536368656D61732F436F6D6D6F6E536368
311
656D612E786D6C504B010214001400060808008B76564C317D3058AB040000AB1500003E000000000000000000000000008904000036454232383634362D314446422D343830382D393643422D4346323039393632454544452F536368656D61732F47656E65726963536368656D612E786D6C504B01021400140006080800
311
8B76564C79B77F2750010000C203000045000000000000000000000000009009000036454232383634362D314446422D343830382D393643422D4346323039393632454544452F536368656D61732F52656E6465724D6174657269616C536368656D612E786D6C504B010214001400060808008B76564CA8B7D9D251000000
311
570000004700000000000000000000000000430B000036454232383634362D314446422D343830382D393643422D4346323039393632454544452F4173736574446174612F41737365745461626C654F66436F6E74656E74732E62696E504B010214001400060808008B76564CF86583405800000068000000450000000000
311
0000000000000000F90B000036454232383634362D314446422D343830382D393643422D4346323039393632454544452F4173736574446174612F53747265616D56657273696F6E5461626C652E696E66504B010214001400060808008B76564CC2274247340100009A0400003600000000000000000000000000B40C0000
311
36454232383634362D314446422D343830382D393643422D4346323039393632454544452F4173736574446174612F636E782E786D6C504B010214001400060808008B76564C0BD667B1070100004F03000034000000000000000000000000003C0E000036454232383634362D314446422D343830382D393643422D434632
311
3039393632454544452F536368656D61732F636E782E786D6C504B010214001400060808008B76564C410A3D5871000000A40000002C00000000000000000000000000950F000036454232383634362D314446422D343830382D393643422D4346323039393632454544452F636E782E786D6C504B01021400140006080800
311
8B76564C627116957D000000A3000000070000000000000000000000000050100000636E782E786D6C504B010214001400060808008B76564C16E99B5DA6000000350100001300000000000000000000000000F21000005B436F6E74656E745F54797065735D2E786D6C504B010214001400060808008B76564C3DEE336E64
311
000000790000001B00000000000000000000000000C91100006175746F6465736B2D64657369676E2D7061636B6167652E786D6C504B010214001400060808008B76564CFF5AFCF3F90000009601000037000000000000000000000000006612000036454232383634362D314446422D343830382D393643422D4346323039
311
393632454544452F4173736574446174612F636F72652E786D6C504B010214001400060808008B76564CBF99841BF8000000940100003500000000000000000000000000B413000036454232383634362D314446422D343830382D393643422D4346323039393632454544452F536368656D61732F636F72652E786D6C504B
311
010214001400060808008B76564C3302785902010000D70100002D00000000000000000000000000FF14000036454232383634362D314446422D343830382D393643422D4346323039393632454544452F636F72652E786D6C504B010214001400060808008B76564CD6F2C96008010000B201000008000000000000000000
311
000000004C160000636F72652E786D6C504B050600000000110011005A0600007A1700000000
310
504B03041400060808008B76564C000000000000000000000000370000006662782F43464638424438302D353939302D343041392D414532462D3830423333453538434236322F617474726962757465732E62696E504B03041400060808008B76564C000000000000000000000000350000006662782F4346463842443830
310
2D353939302D343041392D414532462D3830423333453538434236322F76657274696365732E62696E504B03041400060808008B76564CF270F1330600000004000000360000006662782F43464638424438302D353939302D343041392D414532462D3830423333453538434236322F747269616E676C65732E62696E6366
310
60600000504B03041400060808008B76564C51464CB48900000043010000360000006662782F43464638424438302D353939302D343041392D414532462D3830423333453538434236322F6469726563746F72792E786D6C9D8F310EC2300C45AF127987122606C71DD918B841D4B851A43646695A717C52A85029031293A5
310
A76FBF6FACEF7DA7264E43906840EF0FA03836E242F406C6DCEE4EA06AC22492573150D1F66C60C640E8938CB705396EEDD86DE9B5042FE27813D640EA63BB001C722AF6E55CB61E4863F58284D5D3F53DD715CE1C3985E63FD7F1B7EBDD617E9F1E504B03041400060808008B76564C531A03FA3A070000201C0000340000
310
006662782F43464638424438302D353939302D343041392D414532462D3830423333453538434236322F6F626A656374732E786D6CDD595B6FE23814FE2B56F665F7815C20B4659432E2524668D4996AD0ACF62D32C1506F73939DB4747FFD1E3B76484280B43B238DB6954A6AECE373BE733FF13EEEA3103D13C66912DF1A
310
8E691B88C441B2A1F1EED6C8B36DEFC6401FC7C863499255F61928C611B935C4B231F6762CC953B5B4215B9C87CDD5C5F42FC4031213030521E6FCD6E0C12389B089F32CD910FE646E7086CDDD766F3A66B1B14E76C770FAD8B82AC58CC419B00AEB3150511C38F57F41246BEC5962436D5BBFDBB6C1996D9614BCCE288D79
310
86E3E088AB069D7E37AE068E3BBFEB0F47BDA1EB0E7AEE55DFE94D17D379CFB91ED8B3ABD96C34B91B1968ECAD93242C15909278035A7C35C68E67896F4AF1150A6D7C07491C9340A1D9B66143145D4A7813931AB08E14ADA29042D6CAC2A0A3F027B67502A5C6520D6D2D9CFEAC5A6FB2FE1B40E05DAC947122AC9C670C74
310
ADB02FFCC1F6AC62B5A617CA518433C2280E5148D70C3350106C2D14542323BC4590420233A9454DAFCA2B18F6655F6AE3729B87A1F05F632C3DCD077F2419979CD17F083B705FBD0D780269731A67374AD8EC35051223CF928BC57783BEFAB200126D43BC036B0131C5A641BF81D74CC482E5DC187F5EACF72B111FDA2F4F
310
5992129609CB93CEACFC4E6BB0625A607C1D402970ADEBEE80CA3780FE0B205FF2823CD01CA37B77EF6AD9198EF93661116807D9A867C31F1B89C7A327CF2A0F8F11AAC5CA539882DBFE204C6B62D4EEAE403AF69EC1E8133650C2AD021C824DDFD358F839180A0A13588278BF5DEF8DF11282292CC2291C82F4F0EB59E211
310
C1474107E24D43436DE1B783A2B4C334FDECA0AB4F60338C06A5AA6A329EC277F843F09DCC579F5739DBE280DC2BC79E932D8D6906C9B49DA11AE83597FFBEFC223DF2489EDAAE00EED9252270B4E865A5F482A462801591870BD5C8957B0AEE1E86382649CED57A5BA00A923061FEFAD52F7CB8F5AE3FB5111497817F0B0B
310
680D6690DD034653018A3156E29591D03CE024E2A032C05DA1547F8D832701AF1F40C47A0F1F60B5983589E651EAE328C96311BE8FCDBB299A39B0E58FE38CFAF6A87F33BAD2C272495E7B8F0E0D25F3E29E08A7272E99D5B4A5A286A65CF8910BD1B24D82006AA63CF3931407346BB7858610CA4301ECB32C6FE8769B7308
310
EAADB034383607CE10D995BFE525E7B95797F834C23BE26FB1C870ADF7D5002A896B095A91D98509E734265C56284791AB818A6D422028EC56536D3142CAFD8864F83DF627535EC3FC18D9863ED45299A8662F5B9F665065CF531445E596C4BE94FFD5E7384AC3A24ABB8481D36FDCD08AAB605A5CF10CF6E6E3CCB7374416
310
DD97A8977141E3DB89FAE8DDE44FC0C3F04F87475F41A1F4861C7959B38E397446E2E70682CAD5D0195C6B455CC24A5F95891A24CCA16A0A5EFD1742778FDD025AA77B3809B73E0DC33CF28B7C9091084A309CE5AC93BF5E0DED23E5ABB8D07088CA4D5B1A4281DC3968CADA43571F20952C3E4E05CDCA3520148DA147EB24
310
C89114AD262C7521FB51D1765DD6FEDBA9FEE77859ED539EC8EB4BC236AD9CD6CB085D81E98241844B95E14A3B9294C75ED5F922D9B85CC6C1D544547C2BBA0465218C3C533198901D506BFFC05F701640205DC9CFDE143C624336879AA2464E8D398CF1E0D08DE83AB5DAE940B013E9A356782D45408D60DA80459CBD170F
310
E1370CAA86CA8F5BAAAAB18AF5A5486C260C560E7C9CA1F5F5D3AA4105563A9F7E101891970605B53A1385DC1952DF97877AB5414149F47D79E678F69847EB185391198559E04DFAE1A3EC256F2D68142C7771ED4C86CEBC3771EFDC9EDB9FDEC1933BE9D9D793FEC29ED9A3D1606631C2939C05845B7DCBF675ED94C63B6D
310
1805745D3A0A982A5C6EFDB43D3715FC3FEE28C2648D4FD9E2AFDA5094E59E28C81ABED8B5A1680DD4EBB755FFCE51A06E4F626FAA9C8B598136F0F3690B8291CEF7DD4B0B4D5A5712ED3C5732E21B13EFC96EE5A7E7985A406FCD0FB51D6D21BF1E8B61F6D492A574772BE3DADD6CE83A0B0742D8DDE2AEE74E86F3DEC8EE
310
2F7AC3A97D6D3BD3D1B43F858CA2FA08950BBBE6955F22866A662B63349806F324A43094271BB4230974403075E8105F5944B8EC6CA00050695CBF11E870FAB998A966781DEAD3C12386C174A832721EC05014BA8E5B43ADA3DF600C2A26917238653E41E251D66EA09CD15B034C20A3905FCC358CB3E4F050526F8C2B416D
310
38DE899EA93855FE7F3826D0015B39C855EEE9828B92AC669D301C48E57B028876C51763EFFDA26B7610CEE0719D67A530878583340A04FD42A0100EA67E4F0ADE3D049EF37239A6DC5383A4D364FEAC1D14547B19663B395EAFE03D993F586232BEFC8AD230DF09759ECBF7354A3D516784793184F2C030949829167DF8EC
310
83F5C01278C514A105052340BFEF6FAEFEB06649142571B1644DD48B2AB47A84D74E1B4B8FFCA070B11DD792758F1AEBC3DC8A13136FF8132C806A1915B3D102E29A0194E1A962005A23421770ACB67F39472A0940DDAC2DA65ABA0A78E44C1F8123897739C26DAA1B2A0348F005E0AA98D3960F7AC1B3180CC1C7FF02504B
310
03041400060808008B76564C41A083F23D01000046050000300000006662782F43464638424438302D353939302D343041392D414532462D3830423333453538434236322F636E782E786D6CCD94C14A033110865F25E4BE9BDD45A1946C0A1E7C020FE22D9B9DAEB1D964492662DFDEA4A655918A8742BD85C93FF07F333F
310
C3376FB321AFE08376B6A76DDD500256B951DBA9A711B7D58A928DE0DE39FC22A3C4CA197A9ACB54F0C9BBB894D2085B194DAE1A6D77A52811BD1E2242A0441919424F837A8659D632A21B21ECEA51A2ACDBDA4370D12B48FDA86728FDCA834418A9E89A7655355DD5750FEDCDFAB65B77DD13675929F8E09C297A6D11BC5B
310
8872E961939986B3FC2D78F4BA683201159FCEEA415BCED2BFE021B9B553D1E17EC9BA65315A494C63624E216095442067CE3EC482B3CCFB8DFAFEEEF1E8808CDA8342E7F7571A407B6E002763754AC2DFF80FC2DFB1DDF09270AFB5EDB3B0C5D6C5508F690D29AE3FF79F5224ED64FE5FE84FC62E9FF9744A50ABFF877CF4
310
75216276387969E9F9028A77504B03041400060808008B76564CBE2E1C1E7E000000A30000000B0000006662782F636E782E786D6C4D8CD10E822018465F85FDF7146936D8002726EFE1121D13A191B41E3F685E74F56D67DF39BCFD6C0EBD4D7CD9E0055C4E0490F18F3059BF0848FB8C29A056F218C2FE7703E4C7CD0828
310
18245F6248CF034D661E932BD459BF1EB0D79AAA3B25B8618CE02BE918EE864A634A545D0F0DEDD5ADCAC6B928797EBDBC252FBF504B03041400060808008B76564CA6D797065F0000008200000007000000636E782E786D6C4DCB3B0E80201045D1AD90E9FD7516806B51190811670C8A61F982B1B0BAC9C97B72CA7B1037
310
C6D3332918DA1E04D2CAC69353902EDB8C20262D23F3F59B81A079470595414B17391D1F19B4730A5583A7ED43BBE4025D9592775E5ADFFA01504B03041400060808008B76564C4FEB6A7CA0000000F4000000130000005B436F6E74656E745F54797065735D2E786D6C7D8F4B0EC2300C44AF1279DFA6B0400835ED02B801
310
1730C16D239A8F121795DB93D02D6269CFBC19BBED573B8B17C564BC53B0AB1B10E4B47F18372A5878A88E20FAAEBDBD032591BD2E299898C349CAA427B2986A1FC86565F0D122E7318E32A07EE24872DF3407A9BD63725C71C980AEBDD080CBCCE2BAE6F5D69B7110E7CD57AA146008B3D1C8F92C5954F993BB1BF787F39A
310
89ABC491D09600F9FDA2FB00504B03041400060808008B76564C3DEE336E64000000790000001B0000006175746F6465736B2D64657369676E2D7061636B6167652E786D6C35CBC10E83200C00D05F21DCA56CA76D41FC96062B120735B69A7DBE268BB7777961F8D5AF396893C2ADB70FE7ADA196782C2DF776D7A97B5933
310
C430F15651E5469C55D70F80A4992A3ADC954792C525AE70A1E4D6AD9816CC044FEFDF01FE3FDE907802504B03041400060808008B76564C94249E53F7000000960100003B0000006662782F43464638424438302D353939302D343041392D414532462D3830423333453538434236322F7265736F75726365732F636F7265
310
2E786D6C8550CB6EC32010FC156BEFF881E3164798A8B5FC073DF586F0C64589C1E251F5F30BB12BB5A75E58343B33BB3BFCF2B5DE8B4F745E5B334053D650A05176D6661920862B61505C0477D6865F34288C5C71800C83E08BB3713B20654D40935163673C40E93D0628D43D7D06F0EA035759CA1812C3DFCA4DAA9B5CB0
310
6CCA9D27788C7A3EA47A4E6EFAAAD18168FB7A64139B48FBD275E4C4C691B0893E917E9A5E7BD63CA7B7E555160B1EF4FA335D3994016710B46E18A929A1F4AD399D3B7AA6F49D579929B80F2EDD7C0CCDD78170E86D740A3DAFF6EE1FD7B8CDFFBB466D424B0FD75DE1413469C94743F02AA794CA23C25473A2E21B504B03
310
041400060808008B76564C087D56F4F2000000B1010000310000006662782F43464638424438302D353939302D343041392D414532462D3830423333453538434236322F636F72652E786D6C8D50CB6EC32010FC156BEFD818C7158930519CC65FD0536F08130725068B47D5CF2FC4AED4DE725A343BC3CC0E3B7ECF8FE24B
310
39AFADE9A02E3114CA483B6A337510C31551288E9C396BC31F1A1446CCAA830C036793B371D920694D5026A3C68E6A0385F72A40211FE9D1819737358B52C49018FE5E2E42DEC5A4CABA5C799C053DFF4AA55322A81138C135459820423EEADDA12507423E5995999CC5A8C7CD4A8FC95D5FB572C0CFC340FB778A51BBDF63
310
B4C3A73D3A5DC88028EE9BE6D2D273FF465895C59CF9E0D2CDDB27F9BA57E5ABF05FE6B88C2F64D6263464335C151E789DF23C179C55B9C0349EEDA699CBE63F504B03041400060808008B76564C70661DE352010000DD0200000C0000006662782F636F72652E786D6C8D52CB6EC32010FC158B3B7EE0A475224CD446FE83
310
9E7A2398B828365818AC7C7E173F94FAD0B4B284D1ECEECCCE087ABA776D344A3B28A34B94C5298AA416A656BA299177575CA0E8C4A835C6FD684391E69D2C518011A38D35BE5F2061B4933AA0DAD47201F930488722D1C2A54483F8921D8FB977D031DCE29E8B1B6F649CC5731FA3DEAB7A195535B0A9AB9216B1FC909E8B
310
AAA870FEB6DFE35D713EE3A2222FF85055EF87227B8533A7491866D4A96E55175672276BC4489A15382598908F6C77DC9323219F34099D8C0ECE82E74534B843EC7AB9D364C6377CBEAFFFE6F34ABB9C2C7CF3C4805806EB4D054693900FFCA6F0B6198230E4E7F8A55D2DDC001AA570C6EEA0521BFF288DBCF512A8D368FA
310
683257817922F88D873CE179CE014171DDC06ADCC1F5E25D50DFEED44B8B47778FB4B11D6F1FCBCD2B3ECE87D0C6D23A2E4C6BEC7FA657AB6B98497898EC1B504B03041400060808008B76564C2CB4578606010000B201000008000000636F72652E786D6C8D50416EC32010FC0ADA3BB6C1714B224CD45AFE414FBD51431C
310
141B2C0351FBFB42EC4AEDAD1716CDCCEECC2E3F7FCE13BAEBD51B675B20450548DBC12963C71662B86006E82CF8EA5CF8250364E5AC5BC830083EAE2E2E3B34381BB4CDA8754AEFA0F45E0740C3943E2DF8E1AA6759C81892C2DF8A450E3739EA82149B4EF060E69FD661D5326805825684E18A624ADFC8E1D4D013A5EFBC
310
CC4AC163346AB7322AB99B8BD12B88FA5875AC673DAE5F9A061F58D761D6D3277CECFBD72323CFE9AD79999B05F7614D3BEF4352CE80BCBC675F5E6E94E01FCE4DBB208552C8D9E90B44C5CB4CFC091D17F58FD0C6869AEE03B70E0F82A4400F2219E70BA6F2386FAAF9DAE21B504B010214001400060808008B76564C0000
310
000000000000000000003700000000000000000000000000000000006662782F43464638424438302D353939302D343041392D414532462D3830423333453538434236322F617474726962757465732E62696E504B010214001400060808008B76564C00000000000000000000000035000000000000000000000000005500
310
00006662782F43464638424438302D353939302D343041392D414532462D3830423333453538434236322F76657274696365732E62696E504B010214001400060808008B76564CF270F13306000000040000003600000000000000000000000000A80000006662782F43464638424438302D353939302D343041392D414532
310
462D3830423333453538434236322F747269616E676C65732E62696E504B010214001400060808008B76564C51464CB489000000430100003600000000000000000000000000020100006662782F43464638424438302D353939302D343041392D414532462D3830423333453538434236322F6469726563746F72792E786D
310
6C504B010214001400060808008B76564C531A03FA3A070000201C00003400000000000000000000000000DF0100006662782F43464638424438302D353939302D343041392D414532462D3830423333453538434236322F6F626A656374732E786D6C504B010214001400060808008B76564C41A083F23D01000046050000
310
30000000000000000000000000006B0900006662782F43464638424438302D353939302D343041392D414532462D3830423333453538434236322F636E782E786D6C504B010214001400060808008B76564CBE2E1C1E7E000000A30000000B00000000000000000000000000F60A00006662782F636E782E786D6C504B0102
310
14001400060808008B76564CA6D797065F0000008200000007000000000000000000000000009D0B0000636E782E786D6C504B010214001400060808008B76564C4FEB6A7CA0000000F40000001300000000000000000000000000210C00005B436F6E74656E745F54797065735D2E786D6C504B010214001400060808008B
310
76564C3DEE336E64000000790000001B00000000000000000000000000F20C00006175746F6465736B2D64657369676E2D7061636B6167652E786D6C504B010214001400060808008B76564C94249E53F7000000960100003B000000000000000000000000008F0D00006662782F43464638424438302D353939302D343041
310
392D414532462D3830423333453538434236322F7265736F75726365732F636F72652E786D6C504B010214001400060808008B76564C087D56F4F2000000B10100003100000000000000000000000000DF0E00006662782F43464638424438302D353939302D343041392D414532462D3830423333453538434236322F636F
310
72652E786D6C504B010214001400060808008B76564C70661DE352010000DD0200000C00000000000000000000000000201000006662782F636F72652E786D6C504B010214001400060808008B76564C2CB4578606010000B201000008000000000000000000000000009C110000636F72652E786D6C504B0506000000000E
310
000E0080040000C81200000000
  0
XRECORD
  5
27
102
{ACAD_REACTORS
330
22
102
}
330
22
100
AcDbXrecord
280
     1
270
     1
271
     1
  0
XRECORD
  5
26
102
{ACAD_REACTORS
330
22
102
}
330
22
100
AcDbXrecord
280
     1
270
     1
271
     1
  0
XRECORD
  5
28
102
{ACAD_REACTORS
330
22
102
}
330
22
100
AcDbXrecord
280
     1
270
     1
271
     1
  0
XRECORD
  5
25
102
{ACAD_REACTORS
330
22
102
}
330
22
100
AcDbXrecord
280
     1
270
     1
271
     1
  0
XRECORD
  5
1540
102
{ACAD_REACTORS
330
4AA
102
}
330
4AA
100
AcDbXrecord
280
     1
102
DISPLAYNAME
  1
Imperial24
102
FLAGS
 90
        0
  0
CELLSTYLEMAP
  5
153F
102
{ACAD_REACTORS
330
153E
102
}
330
153E
100
AcDbCellStyleMap
 90
        3
300
CELLSTYLE
  1
TABLEFORMAT_BEGIN
 90
        5
170
     1
 91
        0
 92
    32768
 62
   257
 93
        1
300
CONTENTFORMAT
  1
CONTENTFORMAT_BEGIN
 90
        0
 91
        0
 92
      512
 93
        0
300

 40
0.0
140
1.0
 94
        5
 62
     0
340
55
144
0.25
309
CONTENTFORMAT_END
171
     0
 94
        0
309
TABLEFORMAT_END
  1
CELLSTYLE_BEGIN
 90
        1
 91
        1
300
_TITLE
309
CELLSTYLE_END
300
CELLSTYLE
  1
TABLEFORMAT_BEGIN
 90
        5
170
     1
 91
        0
 92
        0
 62
   257
 93
        1
300
CONTENTFORMAT
  1
CONTENTFORMAT_BEGIN
 90
        0
 91
        0
 92
      512
 93
        0
300

 40
0.0
140
1.0
 94
        5
 62
     0
340
55
144
0.18
309
CONTENTFORMAT_END
171
     0
 94
        0
309
TABLEFORMAT_END
  1
CELLSTYLE_BEGIN
 90
        2
 91
        1
300
_HEADER
309
CELLSTYLE_END
300
CELLSTYLE
  1
TABLEFORMAT_BEGIN
 90
        5
170
     1
 91
        0
 92
        0
 62
   257
 93
        1
300
CONTENTFORMAT
  1
CONTENTFORMAT_BEGIN
 90
        0
 91
        0
 92
      512
 93
        0
300

 40
0.0
140
1.0
 94
        2
 62
     0
340
55
144
0.18
309
CONTENTFORMAT_END
171
     0
 94
        0
309
TABLEFORMAT_END
  1
CELLSTYLE_BEGIN
 90
        3
 91
        2
300
_DATA
309
CELLSTYLE_END
  0
ENDSEC
  0
EOF
